Guitaretab - guitar tabs
Song name
# A B C D E F G H I J K L M N O P Q R S T U V W X Y Z

Misc Unsigned Bands - Faded Vision - Decent tab

Intro

Tuning - Dadgbe

p - palm mute
--> - let ring
/ - slide

---           ---
--           --
---           ----|    - Set points for repetition
---           ----|
--           --
---   ...     ---

Guitar 1

e------------------------------------------------------------|
b------------------------------------------------------------|
g--7-----8-----7-----8-----7-8---7-----8-----7-----8-----7-8-|
d--5-5-5-5-5-5-5-5-5-5-5-5-5-5---5-5-5-5-5-5-5-5-5-5-5-5-5-5-|
a------------------------------------------------------------|
D------------------------------------------------------------|
     p p   p p   p p   p p         p p   p p   p p   p p

Guitar 1

e-----------------------------------------------------------------|
b-----------------------------------------------------------------|
g-----------------------------------------------------------------|
d--8--8-8-8-8-8-8--8-8-8-8-8-8--8--7--7-7-7-7-7-7--7-7-7-7-7-7----|
a--8--8-8-8-8-8-8--8-8-8-8-8-8--8--7--7-7-7-7-7-7--7-7-7-7-7-7----|
D--8--8-8-8-8-8-8--8-8-8-8-8-8--8--7--7-7-7-7-7-7--7-7-7-7-7-7----|
        p p p p      p p p p            p p p p      p p p p

Guitar 2

e-----------------------------------------------------------------|
b-----------------------------------------------------------------|
g-----------------------------------------------------------------|
d--8--8-8-8-8-8-8--8-8-8-8-8-8--8--7--7-7-7-7-7-7--7-7-7-7-7-7----|
a--8--8-8-8-8-8-8--8-8-8-8-8-8--8--7--7-7-7-7-7-7--7-7-7-7-7-7----|
D--8--8-8-8-8-8-8--8-8-8-8-8-8--8--7--7-7-7-7-7-7--7-7-7-7-7-7----|
        p p p p      p p p p            p p p p      p p p p

Verse

Both Guitars

e---------------------------------------------------------------|
b--------------------------------------------------------------|
g---7-----8-----7-----8-----7-8---7-----8-----7-----8-----7-8---|
d---5-5-5-5-5-5-5-5-5-5-5-5-5-5---5-5-5-5-5-5-5-5-5-5-5-5-5-5---|
a--------------------------------------------------------------|
D---------------------------------------------------------------|
     p p   p p   p p   p p         p p   p p   p p   p p

e-------------------------------------------------------------------|
b------------------------------------------------------------------|
g-------------------------------------------------------------------|
d--8--8-8-8-8-8-8--8-8-8-8-8-8--8--7--7-7-7-7-7-7--7-7-7-7-7-7-->---|
a--8--8-8-8-8-8-8--8-8-8-8-8-8--8--7--7-7-7-7-7-7--7-7-7-7-7-7-->--|
D--8--8-8-8-8-8-8--8-8-8-8-8-8--8--7--7-7-7-7-7-7--7-7-7-7-7-7-->---|
        p p p p      p p p p            p p p p      p p p p
[ Tab from: http://www.guitaretab.com/m/misc-unsigned-bands/80059.html ]
                                                                       x6
Bridge

Both Guitars

e-----------------|
b-----------------|
g-----------------|
d--5-------->-3-2-|
a--5-------->-3-2-|
D--5-------->-3-2-|

Chorus

Guitar 1

e-------------------------------------------------------------------|
b-----------------------------------------------------------------|
g-------------------------------------------------------------------|
d---15-------15-15-14-------14-14-12-------12-12-11-------11-11-----|
a--12-------12-12-10-------10-10--8--------8--8--7--------7--7----|
D---12-------12-12-10-------10-10--8--------8--8--7--------7--7-----|

                                                                      x4
e------------------------------------------------|
b------------------------------------------------|
g------------------------------------------------|
d---15-------15-15-14-------14-14-12-------12-12-|
a---12-------12-12-10-------10-10--8--------8--8-|
D---12-------12-12-10-------10-10--8--------8--8-|

Chorus end on

e-------------------------------------------------|
b-------------------------------------------------|
g-------------------------------------------------|
d--8-8-8-8-8-8-8-8-8-8-8-8-8--8-7--------------->-|
a--8-8-8-8-8-8-8-8-8-8-8-8-8--8-7--------------->-|
D--8-8-8-8-8-8-8-8-8-8-8-8-8--8-7--------------->-|
   p p   p p   p p   p p

Solo Backing Track

Guitar 1

e---------------------------------------------------------------|
b--------------------------------------------------------------|
g---7-----8-----7-----8-----7-8---7-----8-----7-----8-----7-8---|
d---5-5-5-5-5-5-5-5-5-5-5-5-5-5---5-5-5-5-5-5-5-5-5-5-5-5-5-5---|
a--------------------------------------------------------------|
D---------------------------------------------------------------|
     p p   p p   p p   p p         p p   p p   p p   p p

e-------------------------------------------------------------------|
b------------------------------------------------------------------|
g-------------------------------------------------------------------|
d--8--8-8-8-8-8-8--8-8-8-8-8-8--8--7--7-7-7-7-7-7--7-7-7-7-7-7-->---|
a--8--8-8-8-8-8-8--8-8-8-8-8-8--8--7--7-7-7-7-7-7--7-7-7-7-7-7-->--|
D--8--8-8-8-8-8-8--8-8-8-8-8-8--8--7--7-7-7-7-7-7--7-7-7-7-7-7-->---|
        p p p p      p p p p            p p p p      p p p p

Structure

Intro
Verse
Bridge
Chorus
Verse
Bridge
Chorus
Solo
Bridge
Chorus
Bridge


There it is. That is the absolute correct tab, of which I play. I'll update it soon with 
lead work as soon as Alex gets his guitar back! :)

As for now, enjoy!
Related for Faded Vision - Decent tab