Song name
# A B C D E F G H I J K L M N O P Q R S T U V W X Y Z

Misc Unsigned Bands - Demoror - Abandoned Hope tab

Band: Demoror
Song: Abandoned Hope Rhythm Guitar
Tuning: eBGDAD (Dropped D)

intro/Verse (verse=X4)

E--------------------------------------------------------------------------|
B--------------------------------------------------------------------------|
G--------------------------------------------------------------------------|
D-0--0-1-3-1-----7--7-3-5-3------X 8---------------------------------------|
A-0--0-1-3-1-0-0-7--7-3-5-3-0-0--------------------------------------------|
D-0--0-1-3-1-0-0-7--7-3-5-3-0-0--------------------------------------------|

Pre-Chorus

E--------------------------------------------------------------------------|
B--------------------------------------------------------------------------|
G--------------------------------------------------------------------------|
D-7--6-0-7--6-0-7--6-0-------------------7--6-0-7--6-0-7--6-0--------------|
A-7--6-0-7--6-0-7--6-0-------------------7--6-0-7--6-0-7--6-0--------------|
D-7--6-0-7--6-0-7--6-0--0000000000000000-7--6-0-7--6-0-7--6-0-0000000000000|

Chorus

E--------------------------------------------------------------------------|
B--------------------------------------------------------------------------|
G--------------------------------------------------------------------------|
D------31-31------31-3-----------31-31------31-3---------------------------|
A------31-31------31-3-----------31-31------31-3---------------------------|
D-0000-31-31-0000-31-3//6---0000-31-31-0000-31-3//5------------------------|

Pre Chorus
Verse
Pre Chorus
Chorus
Pre Chorus

Bridge

E--------------------------------------------------------------------------|
B--------------------------------------------------------------------------|
G--------------------------------------------------------------------------|
D-0~~~~~-------------------------------------------------------------------|
A-0~~~~~-------------------------------------------------------------------|
D-0~~~~~000-000----000-000----000-000----000-000----000-000-000-000-000-000|

E--------------------------------------------------------------------------|
B--------------------------------------------------------------------------|
G--------------------------------------------------------------------------|
D-------------------10~-------9~--------7~--------6~--------10~--------9~--|
A-------------------8-~-------7~--------5~--------4~--------8-~--------7~--|
D-000-000---000-000---000-000---000-000---000-000---888-888----888-888-----|

E--------------------------------------------------------------------------|
B--------------------------------------------------------------------------|
G--------------------------------------------------------------------------|
D---------3~---------2~--X 4-----------------------------------------------|
A---------3~---------2~----------------------------------------------------|
D-333-333-3~-222-222-2~----------------------------------------------------|

Post Bridge

E--------------------------------------------------------------------------|
B--------------------------------------------------------------------------|
G--------------------------------------------------------------------------|
D-0---------31-------31-------0---------31-------31----------X 2-----------|
A-0---------31-------31-------0---------31-------31------------------------|
D-0-000-000-31-00-00-31-3//6--0-000-000-31-00-00-31-3//5-------------------|

Verse

Outro

E--------------------------------------------------------------------------|
B--------------------------------------------------------------------------|
G--------------------------------------------------------------------------|
D-0--------0--------0--------0---------X 2---------------------------------|
A-0--------0--------0--------0---------------------------------------------|
D-0-000000-0-000000-0-000000-0-000000--------------------------------------|
Tap to rate this tab
# A B C D E F G H I J K L M N O P Q R S T U V W X Y Z