Guitaretab - guitar tabs
Song name
# A B C D E F G H I J K L M N O P Q R S T U V W X Y Z

Misc Unsigned Bands - Kaelah And Morgan Green-love Makes No Sense tab

e------------------------------------------------------------|
b-3-3-3----0------3-3-3----0---------------------------------|
g-----------(6x)----------------(6x)-------------------------|
d------------------------------------222---------------------|
a-3-3-3----3------3-3-3----3---------222---(11x)-------------|
e------------------------------------000---------------------|

We've been searching for the cure. Have we found it I'm not quite sure.  This moment 
been waiting all my life.  If you loved me then I'd be surprised.

Everyday I was thinking of you.  But little did I know you thought of me too.  Drastic 
were taken.  In loving you I thought I was mistaken.

[ Tab from: http://www.guitaretab.com/m/misc-unsigned-bands/80093.html ]
e----------------------------------x-----------------------------|
b----------------------------------x-----------------------------|
g--2-------------5-----------------x-----------------------------|
d--2(8x)--------5----(8x)---------2-----------------------------|
a--0-------------3-----------------2------(16x)------------------|
e----------------0-----------------0-----------------------------|

I stare deep into your eyes. Wondering should I confess all the lies.
We want a love that can be shared.  To carry on from year to year to year.

You were in the arms of someone else.  But you loved me more than you loved life itself. 
We searched and we finally found the cure.  But will it last forever I'm not sure.


e------------------------x--------------------|
b--3--------3------------0--------------------|
g-----(6x)--0----(6x)----2----(6x)------------|
d-----------x------------2------------2-------|
a--3--------2------------0------------2(6x)--|
e-------------------------------------0-------|

chorus..We have come so far and we discovered it. Those thoughts ran through my mind the 
that we first kissed.  The possibilities that I'd end up with you.  I never knew my 
and thoughts would ever come true.
Related for Kaelah And Morgan Green-love Makes No Sense tab