Song name
# A B C D E F G H I J K L M N O P Q R S T U V W X Y Z

Misc Unsigned Bands - Deluvian Slideshow - Julia tab

-------------------------------------------------------------------------------
			     Julia - Deluvian Slideshow
-------------------------------------------------------------------------------
Tabbed by: Spi Waterwing
Email: spiwaterwing@hotmail.com

Tuning: eBGDAE (Standard/regular/whatever)

Timing is difficult, so listen to the recording to get it.  Here are the notes.


Part 1 (over D):
e|-----------------------------------------------------------------------------|
B|-----3----3----------2----2---------3----3----------2----2-------------------|
G|---2----2----2----2----2----2----2----2----2----2----2----2------------------|
D|-0----0----0----0----0----0----0----0----0----0----0----0--------------------|
A|-----------------------------------------------------------------------------|
E|-----------------------------------------------------------------------------|

e|-----------------------------------------------------------------------------|
B|-----3----2----5----3----2----0----3----2h3----2----3p2--0-------------------|
G|---2----2----2----2----2----2----2----2--------------------------------------|
D|-0----0----0----0----0----0----0----0----------------------------------------|
A|-----------------------------------------------------------------------------|
E|-----------------------------------------------------------------------------|


Part 2 / Verse (over A):
e|-----------------------------------------------------------------------------|
B|----2----3---------5----3---------2----0---------3----2----------------------|
G|----2----4---------6----4---------2----1---------4----2----------------------|
D|-----------------------------------------------------------------------------|
A|-0----0----0----0----0----0----0----0----0----0----0----0--------------------|
E|-----------------------------------------------------------------------------|

e|-----------------------------------------------------------------------------|
B|----2----3---------5----7---------9----7---------10---10---------------------|
G|----2----4---------6----7---------9----7---------9----9----------------------|
D|-----------------------------------------------------------------------------|
A|-0----0----0----0----0----0----0----0----0----0----0----0--------------------|
E|-----------------------------------------------------------------------------|

e|-----------------------------------------------------------------------------|
B|----10---9---------7----5---------3----0---------3----2----------------------|
G|----9----9---------7----6---------4----1---------4----2----------------------|
D|-----------------------------------------------------------------------------|
A|-0----0----0----0----0----0----0----0----0----0----0----0--------------------|
E|-----------------------------------------------------------------------------|

e|-----------------------------------------------------------------------------|
B|----2----3---------5----3---------2----0---------3----2----------------------|
G|----2----4---------6----4---------2----1---------4----2----------------------|
D|-----------------------------------------------------------------------------|
A|-0----0----0----0----0----0----0----0----0----0----0----0--------------------|
E|-----------------------------------------------------------------------------|

(over E):
e|-------------------------------|
B|----0----0---------3----3------|
G|----1----1---------4----4------|
D|-------------------------------|
A|-------------------------------|
E|-0----0----0----0----0---------|

Part 3 (over A):
e|-----------------------------------------------------------------------------|
B|----2-3--3-2---2----2-0---3-2-0-2---2-0--3-2---------------------------------|
G|----2-4--4-2---2----2-1---4-2-1-2---2-1--4-2----2----------------------------|
D|--------------------------------------------------------2--------------------|
A|-0-----0------0----0------0----------0-----0------0-----0-----0-5--4---------|
E|-----------------------------------------------------------------------------|

e|------------------------------------------------------------------------------|
B|----2-3--3-2---2----2-0---3-2-0-2---2-0--3-2----------------------------------|
G|----2-4--4-2---2----2-1---4-2-1-2---2-1--4-2----2-----------------------------|
D|--------------------------------------------------------2---------------------|
A|-0-----0------0----0------0----------0-----0------0-----0---------------------|
E|------------------------------------------------------------------------------|

Part 4 / Bridge (over various, look at the bass note):
e|-----------------------------------------------------------------------------|
B|-----2----3----------2----3---------2----3----------2----2-------------------|
G|---2----4---------2----4----------2----4---------2----3----------------------|
D|-----------------------------------------------------------------------------|
A|-----------------------------------------------------------------------------|
E|-0----0----0----0----0----0----2----2----2----2----2----2--------------------|

e|-------------------------------------|
B|-----8----8----------7----7----------|
G|---7----7----7----7----7----7--------|
D|-0----0----0----0----0----0----------|
A|-------------------------------------|
E|-------------------------------------|

e|-------------------------------------------|
B|----2-3--3-2---2----2-0---3-2-0-2----------|
G|----2-4--4-2---2----2-1---4-2-1-2----------|
D|-------------------------------------------|
A|-0-----0------0----0------0----------------|
E|-------------------------------------------|

e|-------------------------------------|
B|-----8----8----------7----7----------|
G|---7----7----7----7----7----7--------|
D|-0----0----0----0----0----0----------|
A|-------------------------------------|
E|-------------------------------------|

e|-----------------------------------------------------------------------------|
B|-----0----2----------3----5---------7----7----------9----9-------------------|
G|---1----2---------4----6----------7----7---------9----9----------------------|
D|-----------------------------------------------------------------------------|
A|-----------------------------------------------------------------------------|
E|-0----0----0----0----0----0----0----0----0----0----0----0--------------------|


Arrangement/Lyrics:
[Intro: Part 1]
[Verse: Part 2]
Sweet Julia has an aura around her
Rainbow colors illuminate the air so bright, yet
Sweet Julia remains as dark as midnight
Try as I may, I can't understand her

Julia, I'll keep you from
[Part 1]
The rain
[Part 3]

Sweet Julia has the mind of a dancer
Shapes and spaces ballet in her head
Sweet Julia, as you lie in your bed
Only you know all of the answers

Julia, I'll keep you from
The rain

[Bridge: Part 4]
Another day like any other / but that I'm a day older, and she's a day younger
So I count the days and count the ways that
I'm behind
Count the years and count the tears I hope
She'll never cry

[Solo, of sorts, over pattern of Part 2 (A scale, harmonized)]

Julia, do you enjoy
[Part 1]
The rain
[Part 3]

Sweet Julia is forever free
Everything I will never know
Sweet Julia, you always light the way to go
Would you walk that road with me?

Julia is dancing
As down falls
The rain
Tap to rate this tab
 
# A B C D E F G H I J K L M N O P Q R S T U V W X Y Z