Song name
# A B C D E F G H I J K L M N O P Q R S T U V W X Y Z

Misc Unsigned Bands - Crimson Tear - Growing Wings In The End tab

Help us improve GuitareTab! Take a short survey!
CRIMSON TEAR-GROWING WINGS IN THE END
This tab has been submitted by the artist and is guaranteed 100% correct

INTRO
2bars drum intro
guitar 1                                               X6
e]---------------------------------------------------|
B]---------------------------------------------------|
G]---------------------------------------------------|
D]-5p4---5p4--------------5p4---5p4-5/7--------------|
A]-----5-----5/7--------------5----------------------|
E]---------------------------------------------------|

guitar 2 (enters on third repeat of gtr.1 prt)         X4
e]---------------------------------------------------|
B]---------------------------------------------------|
G]-4p2---4p2--------------4p2---4p2-4/5--------------|
D]-----4-----4/5--------------4----------------------|
A]---------------------------------------------------|
E]---------------------------------------------------|


Verse Riff
Guitars 1&2
  PM--------------|          PM-------------|            X4
e]-----------------------------------------------------|
B]-----------------------------------------------------|
G]-----------------------------------------------------|
D]------------------5--5--5-------------------4--7--4--|
A]-2---2-2-2-2-2-2--3--3--3--2---2-2-2-2-2-2--2--5--2--|
E]-0---0-0-0-0-0-0-----------0---0-0-0-0-0-0-----------|


Chorus
Guitar 1                                                                  X2
e]-----------------------------------------------------------------------|
B]-----------------------------------------------------------------------|
G]-----------------------------------------------------------------------|
D]-----------------------------------5555555555555555-777777-------------|
A]-7777777777777777-5555555555555555-------------------------777777-5555-|
E]-----------------------------------------------------------------------|
                                                                          
Guitar 2                                                                         X2
e]-----------------------------------------------------------------------|
B]-----------------------------------------------------------------------|
G]-----------------------------------4444444444444444-555555-------------|
D]-5555555555555555-4444444444444444-------------------------555555-4444-|
A]-----------------------------------------------------------------------|
E]-----------------------------------------------------------------------|


Heavy Riff
Guitars 1&2
   PM-----------------------------------------------------|
e]--------------------------------------------------------------|
B]--------------------------------------------------------------|
G]--------------------------------------------------------------|
D]--------------------------------------------------------------|
A]--------------------------------------------------------------|
E]-0-0-2-0-3-0-5-0-0-0-2-0-3-0-5-0-0-0-2-0-3-0-5-0-0-0-5-0-0----|


Harmony Solo
Guitar 1
e|-14-15p14p12----12-12--15p14p12----12-----17-19p17p15----15-15--19p17p15-
B|-------------15-----------------15--------------------19-----------------
G|-------------------------------------------------------------------------
D|-------------------------------------------------------------------------
A|-------------------------------------------------------------------------
E|-------------------------------------------------------------------------
                                                                            
Guitar 2                                                                   
e|-17-19p17p15----15-15--19p17p15----15-----20-22p20p19----19-19--22p20p19-
B|-------------19-----------------19--------------------22-----------------
G|-------------------------------------------------------------------------
D|-------------------------------------------------------------------------
A|-------------------------------------------------------------------------
E|-------------------------------------------------------------------------

Guitar 1
e|----15-----14-15p14p12----12-12--15p14p12----12-----12-14-----------------|
B|-19--------------------15-----------------15--------------15-12-----------|
G|------------------------------------------------------------------9h10p9--|
D|------------------------------------------------------------------------14|
A|--------------------------------------------------------------------------|
E|--------------------------------------------------------------------------|

Guitar 2
e|----19-----17-19p17p15----15-15--19p17p15----15-----15-17-----------------|
B|-22--------------------19-----------------19--------------19-15-----------|
G|----------------------------------------------------------------14h15p14--|
D|------------------------------------------------------------------------15|
A|--------------------------------------------------------------------------|
E|--------------------------------------------------------------------------|


Bridge
Guitar 1
e|----------------------------------------------------------------|
B|----------------------------------------------------------------|
G|----------------------------------------------------------------|
D|-----------4-2-0-----------4-2-0-----------4-2-0----------------|
A|---2---------------2---------------2----------------14-12-10-9--|
E|-0---2-3-0-------0---2-3-0-------0---2-3-0-------10-------------|

Guitar 2
      PM-|            PM-|            PM-|                
e|----------------------------------------------------------------|
B|----------------------------------------------------------------|
G|----------------------------------------------------------------|
D|----------------------------------------------------------------|
A|-2--2-2-5--2-----2--2-2-5--2-----2--2-2-5--2--------------------|
E|-0--0-0-3--0-----0--0-0-3--0-----0--0-0-3--0--------------------|


Epic Chorus
Guitar 1                                           X2
e|-----------------------------------------------|
B|-----------------------------------------------|
G|-----------------------4-5-7-----5-9-----------|
D|---5-7-9-----4-5-7---5---------7-------5-9---4-|
A|-7---------5-------------------------7-----5---|
E|-----------------------------------------------|
                                                   
Guitar 2                                           X2
e|-----------------------------------------------|
B|---------------------7---------8---------------|
G|-7---------7---------4---------5-----7-----7---|
D|-5---------4-------------------------5-----4---|
A|-----------------------------------------------|
E|-----------------------------------------------|

Song Order

Intro
Verse
Chorus
Verse
Chorus
Heavy Riff
Harmony Solo
Verse
Chorus
Bridge
Epic ChorusX2
Chorus
End (Gmaj chord)
Related for Crimson Tear - Growing Wings In The End tab