Song name
# A B C D E F G H I J K L M N O P Q R S T U V W X Y Z

Misc Unsigned Bands - Pcp Aka Tj - Irritable tab

This isn't really the whole song... I will add the rest soon...

|-------------------------------------|
|-------------------------------------|
|-------------------------------------|  X 3
|-2-----------------------------------|
|-2-----------------------------------|
|-0-0-0-0-0-0-0-0-0-0-0-0-0-0-0-0-----|

I mute the first part, however, not with palm mute. I have created a must where if you
to push a fret with your index finger or even just pull a 0 on the low "E" string, you
use your middle finger and rest your finger upon the fret being pushed and it will make 
very nice mute sound.

|---------------------------|
|---------------------------|
|---------------------------|
|-2-----2-----2---2---2---2-|
|-2-----2-----2---2---2---2-|
|-0-0-0-0-0-0-0---0---0---0-|

|--------------------------------|
|--------------------------------|
|------------------5--7--5--7--9-|
|-0-0-0-0-0-0-0-0--5--7--5--7--7-|  X 3
|-0-0-0-0-0-0-0-0--3--5--3--5--7-|
|-2-2-2-2-2-2-2-2----------------|


REMEMBER! This is only part...
Questions? Email me at l555Heretic666@aim.com
Tap to rate this tab
# A B C D E F G H I J K L M N O P Q R S T U V W X Y Z