Song name
# A B C D E F G H I J K L M N O P Q R S T U V W X Y Z

Misc Unsigned Bands - Kool Shades - Policia tab

Policia
Kool Shades
Live From The Sun
tabbed by athsmador- anothervivacarter@yahoo.com


!! THE SECOND KOOL SHADES TAB EVER!!!!

Corrections-11/12- changed alternate verse by one note 
keyboard intro:
the rhytmns off a little, n the notes might be just a little off 
E|------------------------------| 
B|------------------------------|
G|------------------------------| 
D|------------------------------|
A|------------------------------|
E|-0-0-0h5-5-5-5-22222-252-00---|

or this way:
E|-----------------------------| 
B|-----------------------------|
G|-----------------------------| 
D|--------7-7-7---------7------|
A|-7-11-77-------9999-9---9-77-|
E------------------------------|

chorus play these softly or appegiate em
E|--0----5----2-----------| 
B|--0----5----2-----------|
G|--0----5----3-----------| 
D|--2----7----4-----------|
A|--2----7----4-----------|
E|--0----5----2-----------|

if your trying to play it a keyboard, the notes are (in order) E, A, F#, F#, A, F#, E 

have fun
Tap to rate this tab
# A B C D E F G H I J K L M N O P Q R S T U V W X Y Z