Guitaretab - guitar tabs
Song name
# A B C D E F G H I J K L M N O P Q R S T U V W X Y Z

Misc Unsigned Bands - Xandu - Posthumous tab

Xanadu - Posthumous
Music by: Joe Badgett and Liam Hoddy
Instrumental

Intro 4/4 Q=138
(Play 16 times)
E|---------------------------------|
B|---------------------------------|
G|---------------------------------|
D|-----------12h10-----------------|
A|-0-12h10-0-------0-12h10-0-10h12-|
E|---------------------------------|

E|---------------------------------|
B|---------------------------------|
G|---------------------------------|
D|----------12h10------------------|
A|0-12h10-0-------0-12h10-0-9h10*--|
E|---------------------------------|

On 16 play
E|--------|
B|--------|
G|--------|
D|--------|
A|-9~-10~-|
E|--------|

Verse Q=116 5/4
Bass Line
G|------------------------|
D|------------------------|
A|-0(x8)-3(x8)------------|
E|------------1(x8)-3(x8)-|

E|-------------------------------------------------5-7-|
B|-8----0----------------------------5-7-8b10-8b10-----|
G|-7b9~---0~-0tr2--------------5h6h7-------------------|
D|----------------3~-------5h6h7-----------------------|
A|--------------------5h6h7----------------------------|
E|-----------------------------------------------------|
[ Tab from: http://www.guitaretab.com/m/misc-unsigned-bands/80312.html ]
E|-8b10~-5h8p5-------------------------------------------|
B|-------------8-8b10-10b12-10b13-8h10p8-----------------|
G|---------------------------------------9-5h7p5--7b9-5~-|
D|-----------------------------------------------7-------|
A|-------------------------------------------------------|
E|-------------------------------------------------------|

E|--------------------|
B|--------------------|
G|--------------------|
D|-5-7*-7h5----7-5/3~-|
A|-----------7--------|
E|--------------------|


E|----<12>---------------------------------|
B|-<12>------------------------------------|
G|-----------------------------------------|
D|-------------5-----5-----5-----5-----5---|
A|-----------7-----7-----5-----7-----7---5-|
E|---------8-----8-----8-----8-----8-------|
pm           . . . . . . . . . . . . . . . .
E|-------------------------------|
B|-------------------------------|
G|-------------------------------|
D|-------------------------------|
A|-----7-----7-5-----7-----7-5---|
E|-5-8---5-8-----5-8---5-8-----8-|

Pre-chorus
E|-----------------------------------------|
B|-----------------------------------------|
G|-----------------------------------------|
D|-3-3-3-3-3-3-3-3-3-3-3-5/7-7-7-7-7/10-10-|
A|-3-3-3-3-3-3-3-3-3-3-3-5/7-7-7-7-7/10-10-|
E|-1-1-0-1-1-0-1-1-0-1-0-3/5-55-5-5/8--8--|
 pm                                    .  .
Chorus                              
E|--------------|
B|--------------|
G|--------------|
D|-10~-5~-7~-3~-|
A|-10~-5~-7~-3~-|
E|--8~3~-5~-1~-|


Related for Xandu - Posthumous tab