Song name
# A B C D E F G H I J K L M N O P Q R S T U V W X Y Z

Misc Unsigned Bands - Blinded Mind - The End Is Here tab

Help us improve GuitareTab! Take a short survey!
Tuning:E,A,D,G,B,E

e|-------------------------------------|
B|-------------------------------------|
G|-------------------------------------|
D|----------2--------------1-----------|
A|-33----55---4-5-33----55---3-4-------|
E|----22-----2-3-----22-----1-2--------|


e|-------------------------------------|
B|-------2-3---------------------------|
G|--------4-5--------------------------|
D|-2----2-----3------33----55----------|
A|---4-5---------5-6----22----33----55-|
E|--2-3---------3-4--------------22----|


e|-------------------------------------|
B|-------------------------------------|
G|---6---9--7----12--5--2-----6--------|
D|--7--10--8---13---6--3---1-7---------|
A|-5--8---6--11----4--1---2-5----------|
E|-----------------------0-------------|


e|------------------------------------------|
B|------------------------------------------|
G|-------------------------------4444-------|
D|-33----55-33---------3333-7777-4444-3333~~|
A|----22------33----55-1111-5555-2222-1111~~|
E|---------------22-------------------------|

VERY FAST
e|-----------------------------------------------11-10-9-8-14----------|
B|-------------------------12-13-14-15--------------------9------------|
G|-------8-7-6-5---------------------------------------------10--------|
D|------------------------------------16-15-14-13----------------11----|
A|--------------10-11-12-13------------------------------------13------|
E|6-5-4-3--------------------------------------------------------------|
Related for Blinded Mind - The End Is Here tab