Song name
# A B C D E F G H I J K L M N O P Q R S T U V W X Y Z

Misc Unsigned Bands - Caustic Youth - Song 1 tab

Artist: Caustic Youth
Song: SONG 1

INTRO:
(Bass only)

VERSE ONE:

|-------------------------|-----------------|-------------------------|
|-------------------------|-----------------|-------------------------|
|-------------------------|-----------------|-------------------------|
|-14-14-14-14-14-14-14-14-|-9-9-9-9-9-9-9-9-|-10-10-10-10-10-10-10-10-|
|-14-14-14-14-14-14-14-14-|-9-9-9-9-9-9-9-9-|-10-10-10-10-10-10-10-10-|
|-12-12-12-12-12-12-12-12-|-7-7-7-7-7-7-7-7-|-8--8--8--8--8--8--8--8--|

|-----------------|--|-----------------|-----------------|-----------------|
|-----------------|--|-----------------|-----------------|-----------------|
|-----------------|--|-----------------|-----------------|-----------------|
|-5-5-5-5-5-5-5-5-|2x|-7-7-7-7-7-7-7-7-|-4-4-4-4-4-4-4-4-|-9-9-9-9-9-9-9-9-|
|-5-5-5-5-5-5-5-5-|--|-7-7-7-7-7-7-7-7-|-4-4-4-4-4-4-4-4-|-9-9-9-9-9-9-9-9-|
|-3-3-3-3-3-3-3-3-|--|-5-5-5-5-5-5-5-5-|-2-2-2-2-2-2-2-2-|-7-7-7-7-7-7-7-7-|

|-------------------------|--|
|-------------------------|--|
|-------------------------|--|
|-10-10-10-10-10-10-10-10-|2x|
|-10-10-10-10-10-10-10-10-|--|
|-8--8--8--8--8--8--8--8--|--|

CHORUS:

|-----------------|-----------------|-----------------|-----------------|--|
|-----------------|-----------------|-----------------|-----------------|--|
|-----------------|-----------------|-----------------|-----------------|--|
|-7-7-7-7-7-7-7-7-|-6-6-6-6-6-6-6-6-|-2-2-2-2-2-2-2-2-|-9-9-9-9-9-9-9-9-|2x|
|-7-7-7-7-7-7-7-7-|-6-6-6-6-6-6-6-6-|-2-2-2-2-2-2-2-2-|-9-9-9-9-9-9-9-9-|--|
|-0-0-0-0-0-0-0-0-|-4-4-4-4-4-4-4-4-|-0-0-0-0-0-0-0-0-|-7-7-7-7-7-7-7-7-|--|

POST CHORUS:

|-----------------|--|
|-----------------|--|
|-----------------|--|
|-4-4-4-4-4-4-4-4-|4x|
|-4-4-4-4-4-4-4-4-|--|
|-2-2-2-2-2-2-2-2-|--|

VERSE TWO:

|-------------------------|-----------------|-----------------|
|-------------------------|-----------------|-----------------|
|-------------------------|-----------------|-----------------|
|-11-11-11-11-11-11-11-11-|-6-6-6-6-6-6-6-6-|-7-7-7-7-7-7-7-7-|
|-11-11-11-11-11-11-11-11-|-6-6-6-6-6-6-6-6-|-7-7-7-7-7-7-7-7-|
|-9--9--9--9--9--9--9--9--|-4-4-4-4-4-4-4-4-|-5-5-5-5-5-5-5-5-|

|-----------------|--|-----------------|-----------------|-----------------|
|-----------------|--|-----------------|-----------------|-----------------|
|-----------------|--|-----------------|-----------------|-----------------|
|-2-2-2-2-2-2-2-2-|2x|-7-7-7-7-7-7-7-7-|-4-4-4-4-4-4-4-4-|-9-9-9-9-9-9-9-9-|
|-2-2-2-2-2-2-2-2-|--|-7-7-7-7-7-7-7-7-|-4-4-4-4-4-4-4-4-|-9-9-9-9-9-9-9-9-|
|-0-0-0-0-0-0-0-0-|--|-5-5-5-5-5-5-5-5-|-2-2-2-2-2-2-2-2-|-7-7-7-7-7-7-7-7-|

|-------------------------|--|
|-------------------------|--|
|-------------------------|--|
|-10-10-10-10-10-10-10-10-|2x|
|-10-10-10-10-10-10-10-10-|--|
|-8--8--8--8--8--8--8--8--|--|

CHORUS:

|-----------------|-----------------|-----------------|-----------------|--|
|-----------------|-----------------|-----------------|-----------------|--|
|-----------------|-----------------|-----------------|-----------------|--|
|-7-7-7-7-7-7-7-7-|-6-6-6-6-6-6-6-6-|-2-2-2-2-2-2-2-2-|-9-9-9-9-9-9-9-9-|4x|
|-7-7-7-7-7-7-7-7-|-6-6-6-6-6-6-6-6-|-2-2-2-2-2-2-2-2-|-9-9-9-9-9-9-9-9-|--|
|-0-0-0-0-0-0-0-0-|-4-4-4-4-4-4-4-4-|-0-0-0-0-0-0-0-0-|-7-7-7-7-7-7-7-7-|--|

BRIDGE:

|-----------------|-----------------|-----------------|-----------------|--|
|-----------------|-----------------|-----------------|-----------------|--|
|-----------------|-----------------|-7-7-7-7-7-7-7-7-|-9-9-9-9-9-9-9~~-|--|
|-----------------|-9-9-9-9-9-9-9-9-|-----------------|-----------------|2x|
|-7-7-7-7-7-7-7-7-|-----------------|-----------------|-----------------|--|
|-----------------|-----------------|-----------------|-----------------|--|

SOLO:

|----------------------------12~-14-15-14-12-----------------------------|
|-------------------12-14-15-----------------12-14~-15-14-12-14-12-11-11-|
|-9^-9^-9^-12-14-15------------------------------------------------------|
|------------------------------------------------------------------------|
|------------------------------------------------------------------------|
|------------------------------------------------------------------------|

|-----------------------------------------------------------------|
|-11-11-9-9-9-9---------------------------------13b~-12b~-9b~-2b~-|
|---------------9-9-9-9-10-11-12-13-------13-15-------------------|
|-----------------------------------13-15-------------------------|
|-----------------------------------------------------------------|
|-----------------------------------------------------------------|

POST CHORUS:

|-----------------|--|
|-----------------|--|
|-----------------|--|
|-4-4-4-4-4-4-4-4-|4x|
|-4-4-4-4-4-4-4-4-|--|
|-2-2-2-2-2-2-2-2-|--|

VERSE THREE:

|-------------------------|-----------------|-----------------|
|-------------------------|-----------------|-----------------|
|-------------------------|-----------------|-----------------|
|-11-11-11-11-11-11-11-11-|-6-6-6-6-6-6-6-6-|-7-7-7-7-7-7-7-7-|
|-11-11-11-11-11-11-11-11-|-6-6-6-6-6-6-6-6-|-7-7-7-7-7-7-7-7-|
|-9--9--9--9--9--9--9--9--|-4-4-4-4-4-4-4-4-|-5-5-5-5-5-5-5-5-|

|-----------------|--|-----------------|-----------------|-----------------|
|-----------------|--|-----------------|-----------------|-----------------|
|-----------------|--|-----------------|-----------------|-----------------|
|-2-2-2-2-2-2-2-2-|2x|-7-7-7-7-7-7-7-7-|-4-4-4-4-4-4-4-4-|-9-9-9-9-9-9-9-9-|
|-2-2-2-2-2-2-2-2-|--|-7-7-7-7-7-7-7-7-|-4-4-4-4-4-4-4-4-|-9-9-9-9-9-9-9-9-|
|-0-0-0-0-0-0-0-0-|--|-5-5-5-5-5-5-5-5-|-2-2-2-2-2-2-2-2-|-7-7-7-7-7-7-7-7-|

|-------------------------|--|
|-------------------------|--|
|-------------------------|--|
|-10-10-10-10-10-10-10-10-|2x|
|-10-10-10-10-10-10-10-10-|--|
|-8--8--8--8--8--8--8--8--|--|

ENDING:
(Bass Intro)

Then:

|-------------------------|
|-------------------------|
|-------------------------|
|-/7----------------------|
|-/7----------------------|
|-/5----------------------|
  Pick slide.

THE END.





Tap to rate this tab
 
# A B C D E F G H I J K L M N O P Q R S T U V W X Y Z