Song name
# A B C D E F G H I J K L M N O P Q R S T U V W X Y Z

Misc Unsigned Bands - Blinded Mind - Dead Walking tab

E|--------------------------------------------|
B|--------------------------------------------|
G|-----3-6---------4-7---------2-3---------5-4|
D|---5-----5-----6-----8------1----4-----7----|
A|-4---------3-5---------9-10--------5-6------|
D|--------------------------------------------|

E|---------------------------------------------------|
B|---------------------------------------------------|
G|---------------------------3h6p3-------------------|
D|-0-0-----2h4p2-0---0h2~~--5-----5---2h4p2---0h2~---|
A|-0-0-------------4-------4-------3-5------4--------|
D|-0-0-----------------------------------------------|
PM - -

E|-------------------------------------------------------------------|
B|-------------------------------------------------------------------|
G|-----------------------------------------------------2h4p2-0---0h2~|
D|-3-3-3-3-3-3--9-9-9-9-9-9--5-5-5-5-5-5-7-8-8-8-8-8-8---------4-----|
A|-1-1-1-1-1-1--7-7-7-7-7-7--3-3-3-3-3-3-5-6-6-6-6-6-6---------------|
D|-------------------------------------------------------------------|
                                                                      X4
E|-------------------------------------------------------------------------|
B|-------------------------------------------------------------------------|
G|-------------------------------------------------------------------------|
D|-3-3-3-3-3-3--9-9-9-9-9-9--5-5-5-5-5-5-7-8-8-8-8-8-8-10-10-10-10-10-10---|
A|-1-1-1-1-1-1--7-7-7-7-7-7--3-3-3-3-3-3-5-6-6-6-6-6-6-9--9--9--9--9--9~---|
D|-------------------------------------------------------------------------|

E|---------------------------------------------------|
B|---------------------------------------------------|
G|--------------------------------4-2h4p2-0---0h2----|
D|-7-7-7---10-10-10-10-10-10-3-3-3----------4--------|
A|-5-5-5---9--9--9--9--9--9--1-1-1-------------------|
D|---0-------------------------0---------------------|
PM   -                         -              |X3
                                              |
E|---------------------------------------------------|
B|---------------------------------------------------|
G|---------------------------------------------------|
D|-4---5---2---4---5---1-11-22-33-44-55--5~-3-1/5|---|
A|-4---5---2---4---5---1-11-22-33-44-55--3~-3-1/5----|
D|-4---5---2---4---5---1-11-22-33-44-55-----3-1/5----|
PM                       -- -- -- -- --

Ending:
E|------------------|
B|------------------|
G|------------------|
D|-4-2h4p2-0---0h2--|
A|-----------4------|
D|------------------|
Tap to rate this tab
 
# A B C D E F G H I J K L M N O P Q R S T U V W X Y Z