Guitaretab - guitar tabs
Song name
# A B C D E F G H I J K L M N O P Q R S T U V W X Y Z

Misc Unsigned Bands - Dualshock - Psycho Samashi tab

INTRO
e|-0-----------------------------------------|
B|-0-----------------------------------------|
G|-1------------------5----------------------|
D|-2-0-2h3-3p2-------5-----------------0--0-|
A|-2------------3b-2--5-0-2h3-3p2------0--0--|
E|-0------------------3-----------3-0--------|

e|0-----------------------------------------|
B|0-----------------------------------------|
G|1---------------5-------------------------|
D|2-0-2h3-3p23/5-5-------------------------|
A|2---------------5-0-2h3-3p2---------------|
E|0---------------3-----------3-3/5-5/7-7/9-|

(x2)
e|-------------------------------------------------------|
B|-------------------------------------------------------|
G|-------------------------------------------------------|
D|-------------------------------------------------------|
A|-----10-----10-----9----9-------12-------12-----5---5--|
E|-0-0----0-0----7-7--7-7---10-10----10-10----3-3---3-3--|

e|------------------------|
B|------------------------|
B|------------------------|
D|------------------------|
A|---5-----5-----5------5-|
E|-3---3-3---3-3----3-3---|
[ Tab from: http://www.guitaretab.com/m/misc-unsigned-bands/80423.html ]
VERSE (x2)
e|-0-0-0------------------------------|
B|-0-0-0------------------------------|
G|-1-1-1--5-5--4-4--5-5-5--8-8--9-9-9-|
D|-2-2-2--5-5--4-4--5-5-5--8-8--9-9-9-|
A|-2-2-2--3-3--2-2--3-3-3--6-6--7-7-7-|
E|-0-0-0------------------------------|

Chorus (x2)
e|-------------------------------------|
B|-------------------------------------|
G|--------------------------8-8--9-9-9-|
D|-666666666--555555555-----8-8--9-9-9-|
A|-666666666--666666666-----6-6--7-7-7-|
E|-444444444--333333333----------------|

VERSE (x2)
e|-0-0-0------------------------------|
B|-0-0-0------------------------------|
G|-1-1-1--5-5--4-4--5-5-5--8-8--9-9-9-|
D|-2-2-2--5-5--4-4--5-5-5--8-8--9-9-9-|
A|-2-2-2--3-3--2-2--3-3-3--6-6--7-7-7-|
E|-0-0-0------------------------------|

Chorus (x2)
e|-------------------------------------|
B|-------------------------------------|
G|--------------------------8-8--9-9-9-|
D|-666666666--555555555-----8-8--9-9-9-|
A|-666666666--666666666-----6-6--7-7-7-|
E|-444444444--333333333----------------|

Bridge
e|------------------------------------------|
B|------------------------------------------|
G|------------------------------------------|
D|------------------------------------------|
A|---10---10----9---9-----12----12----5---5-|
E|-0----0-----7---7----10----10-----3---3---|

Chorus (x2)
e|-------------------------------------|
B|-------------------------------------|
G|--------------------------8-8--9-9-9-|
D|-666666666--555555555-----8-8--9-9-9-|
A|-666666666--666666666-----6-6--7-7-7-|
E|-444444444--333333333----------------|
Related for Dualshock - Psycho Samashi tab