Song name
# A B C D E F G H I J K L M N O P Q R S T U V W X Y Z

Misc Unsigned Bands - Kollegent Level - No Help tab

e-------------------------------------------R
b-------------------------------------------E
g-------------------------------------------P    2X more
D-------------------------------------------E
A-------------------------------------------A
E-0-55-0-4-0-55-0-6-------------------------T

e-------------------------------------------
b-------------------------------------------
g-------------------------------------------
D-4-4-4444-4-4-4-4-4444-4-4-5-5-5555-5-5----
A-4-4-4444-4-4-4-4-4444-4-4-5-5-5555-5-5----
E-3-3-3333-3-3-3-3-3333-3-3-4-4-4444-4-4----

e-------------------------------------------R
b-------------------------------------------E
g-------------------------------------------P  UNTIL YOU FEEL LIKE IT!!
D-4-4-4444-4-4------------------------------E
A-4-4-4444-4-4------------------------------A
E-3-3-3333-3-3------------------------------T
Tap to rate this tab
# A B C D E F G H I J K L M N O P Q R S T U V W X Y Z