Song name
# A B C D E F G H I J K L M N O P Q R S T U V W X Y Z

Misc Unsigned Bands - Blinded Mind - While The Earth Remains tab

E|------------------------------------|
B|------------------------------------|
G|--------3---------------------------|
D|-3-3---5---3---1~-------------------|X2
A|-5-5------3----1~-------------------|
D|------------------------------------|
Verse:
E|------------------------------------|
B|------------------------------------|
G|------------------------------------|
D|-5-5--1-1/5--5\3~-------------------|x4
A|-3-3--1-1/5--5\3~-------------------|
D|------1-1/5--5\3~-------------------|
Chorus:guitar 1
E|------------------------------------|
B|------------------------------------|
G|----------3-------------------------|
D|-3-3---5-------3--1~-11111111-------|X3
A|-5-5---------3----1~-11111111-------|
D|------------------------------------|
PM                     --------
E|------------------------------------|
B|------------------------------------|
G|------------------------------------|
D|-5-5--------------------------------|X3
A|-3-3---5--5--3-3--1~-1-1--3-3--5-5~-|
D|-------5--5--3-3--1~-1-1--3-3--5-5~-|
PM                     -    -    -
Verse:             |into the 2nd chorus|
E|-----------------|-------------------|
B|-----------------|-------------------|
G|-----------------|-------------------|
D|-5-5--1-1/5--5\3~|3333333333333333---|x4
A|-3-3--1-1/5--5\3~|3333333333333333---|
D|------1-1/5--5\3~|3333--3333--3333---|
PM                  ----  ----  ----
Chorus:guitar 1
E|------------------------------------|
B|------------------------------------|
G|----------3-------------------------|
D|-3-3---5-------3--1~-1111111111111--|X3
A|-5-5---------3----1~-1111111111111--|
D|------------------------------------|
PM                     -------------
E|------------------------------------|
B|------------------------------------|
G|------------------------------------|
D|-5-5--------------------------------|X3
A|-3-3---5--5--3-3--1~-1-1--3-3--5-5~-|
D|-------5--5--3-3--1~-1-1--3-3--5-5~-|
PM                     -    -    -

Solo guitar 1 [this solo is VERY easy and fun to play]
W:wiggle your fingers,b:bend
E|-------------------------------------------|
B|-------------------------------------------|
G|-----------14-12-10w-10/12-12/14-14/15w----|
D|-14-10-12w---------------------------------|
A|-------------------------------------------|
D|-------------------------------------------|

E|----------------------------------------------------|
B|-12-12/14-14\10-10/14-14/15-------------------------|
G|----------------------------12-10-14-17-15-12-14w10w|
D|----------------------------------------------------|
A|----------------------------------------------------|
D|----------------------------------------------------|

E|---------------------------------------------------------------|
B|---------------------------------------------------------------|
G|-12-12/14-14h15p14\10-10/12w-----------------------------------|
D|-----------------------------10-10/12-12\10-10/14-14/15h17p15b-|
A|---------------------------------------------------------------|
D|---------------------------------------------------------------|

Then Play Chorus and verse then intro X1
Tap to rate this tab
 
# A B C D E F G H I J K L M N O P Q R S T U V W X Y Z