Song name
# A B C D E F G H I J K L M N O P Q R S T U V W X Y Z

Misc Unsigned Bands - Blinded Mind - We Are Still Standing tab

Tuning:Drop d

Intro:
E|--------------------------------------------------------|
B|--------------------------------------------------------|
G|--------------------------------------------------------|
D|-0-0----------------------------------------------------|X2
A|-0-0--------3-------4-------6--7-5-4--------------------|
D|-0-0--3-5-6---2-4-5---4-6-7----------5-3-2--3-1-0-------|
PM - -  - - -   - - -   - - -          - - -  - - -
Verse:
E|----------------------------------------------------------|
B|----------------------------------------------------------|
G|----------------------------------------------------------|
D|---------------------------------3-----------------3h4----|X5
A|-0-0000-00-000-0-3h5h6--3--2h4h5---3h5h6--3--2h4h5--------|
D|-0-0000-00-000-0------------------------------------------|
PM   ---- -- -----------------------------------------------|
Chorus:
E|-------------------------------------------------------------------|
B|-------------------------------------------------------------------|
G|-------------------------------------------------------------------| X2[but when u 
no palm mutes]
D|-0-0x-0x-0x--77--1-1---3---5-5-----------3h6p50-06p5p3-------------|
A|-0-0x-0x-0x--55--1-1---3---5-5------3h5h6-----0-0------6p3h5-------|
D|-0-0x-0x-0x------1-1---3---5-5-3h5h6----------0-0-----------6p5p3--|
PM                   -       -                  - -
Solo very fast
E|----------------------------------------------------|
B|---------13---------15--------------------12-11-----|
G|-----------15-----14--10h12h13--16h17---11-----10p9-|
D|-12h14h15----16-13------------14------10------------|
A|----------------------------------------------------|
D|----------------------------------------------------|

E|-----------------12h15p14----------------12------------------------|
B|---------12h14h15--------14p15p12----------14------14-14h16--------|
G|-12h14h15------------------------15p12h14----15--13--------14-13---|
D|-----------------------------------------------11----------------0~|
A|-----------------------------------------------------------------0~|
D|-----------------------------------------------------------------0~|

Ending:
E|---------------|
B|---------------|
G|---------------|
D|-----------0~--|
A|-------2~~~0~--|
D|-2-4-5-----0~--|
Tap to rate this tab
# A B C D E F G H I J K L M N O P Q R S T U V W X Y Z