Song name
# A B C D E F G H I J K L M N O P Q R S T U V W X Y Z

Misc Unsigned Bands - 98 Central - Green City tab

1st guitar

e --------------------------------------------------------------------|
  ------3-----3-----3-----3-----3-----3-----3-----3-------------------|
  ----2-----2-----2-----2-----2-----2-----2-----2---2-----------------|
  --0-----0-----------------------------------------------------------|
  --------------0-----0-----2-----2-----0-----0-----------------------|
E --------------------------------------------------------------------|


2nd Guitar- comes in after two times on the 1st guitar

e --------------------------------------------------------------------|
  --------------------------------------------------------------------|
  --------------------------------------------------------------------|
  -77777777-----------------------------------------------------------|
  -55555555-99999999-55555555-77777777--------------------------------|
E ----------77777777-33333333-55555555--------------------------------|
Tap to rate this tab
# A B C D E F G H I J K L M N O P Q R S T U V W X Y Z