Song name
# A B C D E F G H I J K L M N O P Q R S T U V W X Y Z

Misc Unsigned Bands - Draco - The Slacker tab

-----------------------------------------------------------------------------
			     The Slacker - Draco
-----------------------------------------------------------------------------
Tabbed by: maroon5mustdie
Email: maroon5mustdie@aol.com

Tuning: Standard 

Main Riff
e|--------------------------------------------------------------------------|
B|--------------------------------------------------------------------------|
G|----------1-2----------------------1-2------------------------------------|
D|---2--0-2-----2-------------2--0-2-----2----------------------------------|
A|----------------5/7-------------------------------------------------------|
E|-0------------------5/7---0-----------------------------------------------|

Fill(Palm Muted)
e|--------------------------------------------------------------------------|
B|--------------------------------------------------------------------------|
G|--2----2-----1------------------------------------------------------------|
D|----2----2-2---2----------------------------------------------------------|
A|--------------------------------------------------------------------------|
E|--------------------------------------------------------------------------|

| /  slide up
| \  slide down
| h  hammer-on
| p  pull-off
| ~  vibrato
| +  harmonic
| x  Mute note
===============================================================================
Tap to rate this tab
 
# A B C D E F G H I J K L M N O P Q R S T U V W X Y Z