Song name
# A B C D E F G H I J K L M N O P Q R S T U V W X Y Z

Misc Unsigned Bands - The Stones Who Cant Afford To Roll - Our First Song tab

-------------------------------------------------------------------------|
-------------------------------------------------------------------------|
-----7--7--xx7---7--7--xx7---7--7--xx7-----7--12--10--9--7--12--10--9--7-|
-----7--7--xx7---7--7--xx7---7--7--xx7-----7--12--10--9--7--12--10--9--7-|
-------------------------------------------------------------------------|
-------------------------------------------------------------------------|


-----------------------------------------------------------|
-----------------------------------------------------------|
7--12--10--9--7--12--10--9--7------------------------------|
7--12--10--9--7--12--10--9--7------------------------------|
-----------------------------------------------------------|
-----------------------------------------------------------|

Repeat 4 time
Tap to rate this tab
# A B C D E F G H I J K L M N O P Q R S T U V W X Y Z