Song name
# A B C D E F G H I J K L M N O P Q R S T U V W X Y Z

Misc Unsigned Bands - Necromassacre - Untitled tab

Intro

E-----------------------------------------|
B-----------------------------------------|
G-----------------------------------------|
D-----------------------------------------|
A---2----------3-5--2----------3-5-3------|
E---0--0-0-0-0------0--0-0-0-0------------|

E-----------------------------------------|
B-----------------------------------------|
G-----------------------------------------|
D---------------------------------5~------|
A---2----------3-5--2---------3-5---------|
E---0--0-0-0-0------0-0-0-0-0-------------|
x2

Part 2

E-----------------------------------------|
B-----------------------------------------|
G-----------------------------------------|
D-----------------------------------------|
A---2--8--7--5--10-9--13--12--------------|
E---0--6--5--3--8--7--11--10--------------|x 3

Part 3

E--------------------------------------------------------|
B--------------------------------------------------------|
G--------------------------------------------------------|
D--------------------------------------------------------|
A---2----------8--7--------2----------7--8--7------------|
E---0-0-0-0-0--6--5--------0-0-0-0-0--5--6--5------------|

Song Yet To Be Named
Kris
Tap to rate this tab
 
# A B C D E F G H I J K L M N O P Q R S T U V W X Y Z