Song name
# A B C D E F G H I J K L M N O P Q R S T U V W X Y Z

Misc Unsigned Bands - Blinded Mind - Fallen tab

|--------------------------------------------------------|
|                 Fallen - Blinded Mind                  |
|--------------------------------------------------------|
Tabbed by:Mike242787
Email:Mike242787@yahoo.com

Tuning:Drop D
bend the string more and more
Pre-verse:
E|----------------------------------|
B|----------------------------------|
G|-------:::-----:::-------:::------|
D|-------000-2-1-000-2-1-4-000-3-2--|
A|3^^^^^-000-2-1-000-2-1-4-000-3-2--|
D|-------000-2-1-000-2-1-4-000-3-2--|
Verse:X5                    |do this into the chorus S:squeal
E|--------------------------|----------------------|
B|--------------------------|----------------------|
G|-:::----:::----:::--------|-------------7h9h10s--|
D|-000-/5-000-/3-000-/5-5-/7|-------7h9h10---------|
A|-000-/5-000-/3-000-/5-5-/7|-7h9h10---------------|
D|-000-/5-000-/3-000-/5-5-/7|----------------------|
Chorus:
E|------------------------------------------------------|
B|----------------------------|X3[do squeal the last time you do all of it]
G|------------------------------------------------4s----|
D|-55x-55x-55x-5x-4444-5555-7777-333-222-000-5--3-------|
A|-33x-33x-33x-3x-4444-5555-7777-111-222-000-5--3-------|
D|----------------4444-5555-7777-----222-000-5--3-------|
solo:Guitar 1
E|--------------------------------------------------------------|
B|-------------14h15^---------12h14h15--------------------------|
G|-/14h15p14h16-------12h14h15--------11h13h14------------------|
D|--------------------------------------------12h14h15----------|
A|----------------------------------------------------12h14h15--|
D|--------------------------------------------------------------|

E|---------------------------------------------------|
B|------------------------------------17h19h20^s-----|
G|------15h17-----------------16p15p14---------------|
D|-12h14-----10h12h13-18p17p16-----------------------|
A|---------------------------------------------------|
D|---------------------------------------------------|
CRAZY SWEEPING
E|---------12-14-----------------13-12-------------18--------------|
B|-------14-----13-------------14-----14---------16--15------------|
G|-----15---------11---------12---------15------12-----17----------|
D|---13-------------15-----15-------------13--13---------19--------|
A|-12-----------------14-15-----------------15-------------/13^s---|
D|-----------------------------------------------------------------|
guitar 2
E|--------------------------|
B|--------------------------|
G|-:::----:::----:::--------|
D|-000-/5-000-/3-000-/5-5-/7|do this x5 
A|-000-/5-000-/3-000-/5-5-/7|
D|-000-/5-000-/3-000-/5-5-/7|
                   |     |Ending|
E|-----------------|-----|------|
B|--------X2-------|-----|------|
G|-::::::::::::::::|-----|-:-:--|
D|-0000000000000000|3--2~|-0-0--|
A|-0000000000000000|3--2~|-0-0--|
D|-0000000000000000|3--2~|-0-0--|

Tap to rate this tab
# A B C D E F G H I J K L M N O P Q R S T U V W X Y Z