Song name
# A B C D E F G H I J K L M N O P Q R S T U V W X Y Z

Misc Unsigned Bands - Zlednex - Heaven Or Hell tab

 This is a song of my band called heaven or hell . Enjoy !
 tabbed by robbe 124
 standard tuning.
 P.M = .
 /   = slide
 ^   = bend
 intro:
e|---------------------------------------------------------------------|
B|---------------------------------------------------------------------|
G|--------------------------------------------------66666666-88888888--|
D|-3-----3-----3-----3-----3-----3-----3-----3------66666666-88888888--| X3
A|-3-0-0-3-0-0-3-0-2-3-0-0-3-0-0-3-0-2-3-0-0-3-0-0--44444444-66666666--|
E|-1-0-0-1-0-0-1-0-0-1-0-0-1-0-0-1-0-0-1-0-0-1-0-0---------------------|
     . .   . .   .     . .   . .   .     . .   . .

 verse.
e|---------------------------------------------------------------------|
B|---------------------------------------------------------------------|
G|---------------------------------------------------------------------|
D|-5-------11^--3-----------------3-----------------3-----------------3| 
A|-5------------3-0-0-0-0-0-0-0-0-3-0-0-0-0-0-0-0-0-3-0-0-0-0-0-0-0-0-3|
E|-3------------1-0-0-0-0-0-0-0-0-1-0-0-0-0-0-0-0-0-1-0-0-0-0-0-0-0-0-1|
                  . . . . . . . .   . . . . . . . .   . . . . . . . .  
e|---------------------------------------------------------------------|
B|---------------------------------------------------------------------|
G|---------------------------------------------------------------------|
D|----------------3-----------------3-----------------3----------------|
A|0-0-0-0-0-0-0-0-3-0-0-0-0-0-0-0-0-3-0-0-0-0-0-0-0-0-3-0-0-0-0-0-0-0-0|
E|0-0-0-0-0-0-0-0-1-0-0-0-0-0-0-0-0-1-0-0-0-0-0-0-0-0-1-0-0-0-0-0-0-0-0|
  . . . . . . . .   . . . . . . . .   . . . . . . . .   . . . . . . . .
                ref.
E|---------------------------------------------------------------------|
B|------------|--------------------------------------------------------|
G|---------------------------------------------------------------------|
D|-5-----2------9-9-7-9--9-7-5--7-7-5-7--7-5-4----7-7-5-7--9-7-5-------|
A|-5-----2------9-9-7-9--9-7-5--7-7-5-7--7-5-4----7-7-5-7--9-7-5-------|
E|-3-----0------7-7-5-7--7-5-3--5-5-3-5--5-3-2----5-5-3-5--7-5-3-------|

  
e|-------------------------------------|
B|-------------------------------------|
G|------------------------------/13^---|
D|-7-7-5-7--7-5-4---9-9-7-9------------|
A|-7-7-5-7--7-5-4---9-9-7-9------------|
E|-5-5-3-5--5-3-2---7-7-5-7------------|
 
  main riff:

e|---------------------------------------------------------------------|
B|---------------------------------------------------------------------|
G|--------------------------------------------------66666666-88888888--|
D|-3-----3-----3-----3-----3-----3-----3-----3------66666666-88888888--| X2
A|-3-0-0-3-0-0-3-0-2-3-0-0-3-0-0-3-0-2-3-0-0-3-0-0--44444444-66666666--|
E|-1-0-0-1-0-0-1-0-0-1-0-0-1-0-0-1-0-0-1-0-0-1-0-0---------------------|
     . .   . .   .     . .   . .   .     . .   . .

  2:nd verse
e|------------------------------------|
B|------------------------------------|
G|------------------------------------|
D|-5-------4-----------------2--------|
A|-5-------4------3-3-3-3----2--------|
E|-3-------2------1-1-1-1----0--------|
                  . . . .

               ref.
E|--------------------------------------------------------|
B|--------------------------------------------------------|
G|--------------------------------------------------------|
D|----9-9-7-9--9-7-5--7-7-5-7--7-5-4----7-7-5-7--9-7-5----|
A|----9-9-7-9--9-7-5--7-7-5-7--7-5-4----7-7-5-7--9-7-5----|
E|----7-7-5-7--7-5-3--5-5-3-5--5-3-2----5-5-3-5--7-5-3----|

  
e|-------------------------------------|
B|-------------------------------------|
G|-------------------------------------|
D|-7-7-5-7--7-5-4---9-9-7-9------------|
A|-7-7-5-7--7-5-4---9-9-7-9------------|
E|-5-5-3-5--5-3-2---7-7-5-7------------|

 
Tap to rate this tab
# A B C D E F G H I J K L M N O P Q R S T U V W X Y Z