Song name
# A B C D E F G H I J K L M N O P Q R S T U V W X Y Z

Misc Unsigned Bands - Critical Mass - Unamed tab

-----------------------------------------------------------------------------
			     Unamed - Critical Mass
-----------------------------------------------------------------------------
Tabbed by:JMo_Unleashed
Email:shady0159@yahoo.com

Tuning: standard 

             Intro

e|-----------------------------|
B|-----------------------------|
G|-----------------------------|
D|--------------3^p0-----------|      Repeat 7X
A|--------3--0--------3--0-----|       (palm muted through first 5 times)
E|--3--0-----------------------|

e|-----------------------------|
B|-----------------------------|
G|-----------------------------|
D|--2-2---0h3^p0---------------|      Repeat 7X
A|--2-2------------3p0---------|
E|-----------------------------|

e|------------------------------|
B|------------------------------|
G|------------------------------|
D|--2---------------------------|   (palm muted)
A|--2-2----3p2------------------|
E|-----------------3--2p0-------|

e|---------------0----0---------|
B|-Repeat 12X----1/---3---------|
G|---1-1--1------0----0---------|     Repeat 3X
D|---2-2--2------2/---4---------|
A|---2-2--2------3/---5---------|
E|---------------0----0---------|




| /  slide up
| \  slide down
| h  hammer-on
| p  pull-off
| ~  vibrato
| +  harmonic
| x  Mute note
| ^  Bend 
| *  Palm mute
=============================================================================
Tap to rate this tab
# A B C D E F G H I J K L M N O P Q R S T U V W X Y Z