Song name
# A B C D E F G H I J K L M N O P Q R S T U V W X Y Z

Misc Unsigned Bands - Going Nowhere Fast - Watch It Fade Away tab

Help us improve GuitareTab! Take a short survey!
-------------------------------------------------------------------------------
			     Watch it fade away - Going Nowhere Fast
-------------------------------------------------------------------------------
Tabbed by:fender_punk
Email:

Tuning:standard
PIANO INTRO (arranged for guitar)
e|--------------------------------------------------------------------------|
B|--------------------------------------------------------------------------|
G|-----9-11-9---9------------9-11-9---9------------9-11-9---9---------------|
D|--9---------9---9-------9---------9---9--------9--------9--9--------------|
A|---------------------0----------------------------------------------------|
E|0--------------------------------------------0----------------------------|

e|--------------------------------------------------------------------------|
B|--------------------------------------------------------------------------|
G|-----9--11--9--8----------------------------------------------------------|
D|--9---------9--9----------------------------------------------------------|
A|0-------------------------------------------------------------------------|
E|--------------------------------------------------------------------------|


PRE VERSE (guitar 1 clean with phaser)
e|--------------------------------------------------------------------------|
B|--------------------------------------------------------------------------|
G|-99-9-9-9--8--888-888----99-9-9-9--8--888-888-----------------------------|
D|-99-9-9-9--9--999-999----99-9-9-9--9--999-999-----------------------------|
A|-77-7-7-7--7--777-777----77-7-7-7--7--777-777-----------------------------|
E|--------------------------------------------------------------------------|
(guitar 2 distortion)
e|---------------------------------------------------------------------------|
B|---------------------------------------------------------------------------|
G|-9-------------------------------------------------------------------------|
D|-9-(hold)------------------------------------------------------------------|
A|-7-------------------------------------------------------------------------|
E|---------------------------------------------------------------------------|

(both guitars distortion)
e|--------------------------------------------------------------------------|
B|--------------------------------------------------------------------------|
G|--------------------------------------------------------------------------|
D|-7777777--77777777777777--777777------------------------------------------|
A|-7777777--77777777777777--777777------------------------------------------|
E|-5555555--55555555555555--555555------------------------------------------|

After this, repeat the pre verse again except guitar 2 pickslides into the (both guitars) part


VERSE
(guitar 1 palm muted distortion)

e|---------------------------------------------------------------------------|
B|---------------------------------------------------------------------------|
G|-9-9-9-9-9-9-9-8-8-8-8-8-8-8-8-11-11-11-11-11-11-11-9-9-9-9-9-9-8----------|
D|-9 9 9 9 9 9 9 9 9 9 9 9 9 9 9 9--9--9--9--9--9--9--9-9-9-9-9-9-9----------|
A|-7 7 7 7 7 7 7 7 7 7 7 7 7 7 7 7--7--7--7--7--7--7--7-7-7-7-7-7-7----------|
E|---------------------------------------------------------------------------|
 while guitar 1 plays palm mutes, guitar 2 holds these notes
e|--------------------------------------------------------------------------|
B|--------------------------------------------------------------------------|
G|-------9-----------------------------9--------------------------8---------|
D|----7-----------------------------7---------------------------------------|
A|-7-----------------------------9------------------------------------------|
E|--------------------------------------------------------------------------|
Then both guitars distortion:
e|--------------------------------------------------------------------------|
B|--------------------------------------------------------------------------|
G|--------------------------------------------------------------------------|
D|-7777777--77777777777777--777777------------------------------------------|
A|-7777777--77777777777777--777777------------------------------------------|
E|-5555555--55555555555555--555555------------------------------------------|
Play those 2 twice.

CHORUS

Guitar 1
e|---------------------------------------------------------------------------|
B|---------------------------------------------------------------------------|
G|-99-999-999-999-9-------------------99-999-999-999-------------------------|
D|-99-999-999-999-9-77-777-777-777-7--99-999-999-999-11-99-999-999-999-------|
A|-77-777-777-777-7-77-777-777-777-7--77-777-777-777-11-99-999-999-999-------|
E|------------------55-555-555-555-5-----------------9--77-777-777-777-------|

guitar 2
e|---------------------------------------------------------------------------|
B|--------------79-----------------------------------------------------------|
G|-99-999-999-9-99--99-999-999-999-9--99-999-999-9-9--9--11-11-11-11-11-11---|
D|-99-999-999-9-----77-777-777-777-7--99-999-999-9-11-11-9--9--9--9--9--9----|
A|---------------------------------------------------------------------------|
E|---------------------------------------------------------------------------|
play both parts twice before going back to the pre chorus


BRIDGE
(guitar 1)
e|--------------------------------------------------------------------------|
B|--------------------------------------------------------------------------|
G|-9-------------8------------------11------------------------9---8---------|
D|-9-------------9------------------9-------------------------9---9---------|
A|-7-------------7------------------7-------------------------7---7---------|
E|--------------------------------------------------------------------------|

(guitar 2)
e|---------------------------------------------------------------------------|
B|---------------------------------------------------------------------------|
G|-9-------------------------------------------------------------------------|
D|-9-(hold)------------------------------------------------------------------|
A|-7-------------------------------------------------------------------------|
E|---------------------------------------------------------------------------|
 then


(guitar 1)
e|--------------------------------------------------------------------------|
B|--------------------------------------------------------------------------|
G|-9-------------8------------------11------------------------9---8---------|
D|-9-------------9------------------9-------------------------9---9---------|
A|-7-------------7------------------7-------------------------7---7---------|
E|--------------------------------------------------------------------------|

(guitar 2)
e|---------------------------------------------------------------------------|
B|---------------------------------------------------------------------------|
G|-7-------------------------------------------------------------------------|
D|-7-(hold)------------------------------------------------------------------|
A|-5-------------------------------------------------------------------------|
E|---------------------------------------------------------------------------|

Play that twice.


OUTRO
guitar 1
e|---------------------------------------------------------------------------|
B|---------------------------------------------------------------------------|
G|-9999999888888888-11-11-11-11-11-11-11-9999999998--------------------------|
D|-9999999999999999-9--9--9--9--9--9--9--9999999999--------------------------|
A|-7777777777777777-7--7--7--7--7--7--7--7777777777--------------------------|
E|---------------------------------------------------------------------------|
guitar 2
e|---------------------------------------------------------------------------|
B|---------------------------------------------------------------------------|
G|-9999999999999999999999999999999-------------------------------------------|
D|---------------------------------------------------------------------------|
A|-7777777777777777777777777777777-------------------------------------------|
E|---------------------------------------------------------------------------|

guitar 1
e|---------------------------------------------------------------------------|
B|---------------------------------------------------------------------------|
G|-9999999888888888-11-11-11-11-11-11-11-9999999998--------------------------|
D|-9999999999999999-9--9--9--9--9--9--9--9999999999--------------------------|
A|-7777777777777777-7--7--7--7--7--7--7--7777777777--------------------------|
E|---------------------------------------------------------------------------|
guitar 2
e|---------------------------------------------------------------------------|
B|---------------------------------------------------------------------------|
G|-7777777777777777777777777777777-------------------------------------------|
D|---------------------------------------------------------------------------|
A|-5555555555555555555555555555555-------------------------------------------|
E|---------------------------------------------------------------------------|


Both guitars end on this:

e|--------------------------------------------------------------------------|
B|--------------------------------------------------------------------------|
G|-9------------------------------------------------------------------------|
D|-9------------------------------------------------------------------------|
A|-7------------------------------------------------------------------------|
E|--------------------------------------------------------------------------|


SONG ORDER:
piano intro x1
pre verse x2
verse x2
chorus x2
pre verse x2
verse x2
chorus x2
bridge x2
chorus x2
outro x2

| /  slide up
| \  slide down
| h  hammer-on
| p  pull-off
| ~  vibrato
| +  harmonic
| x  Mute note
=============================================
Related for Going Nowhere Fast - Watch It Fade Away tab