Song name
# A B C D E F G H I J K L M N O P Q R S T U V W X Y Z

Misc Unsigned Bands - Backyard Novicane - Byn tab

----------------------------------------------------------------------------
			     BYN - BackYard Novicane
----------------------------------------------------------------------------
Tabbed by: BYN guitarist Caden 
Email:

Tuning:standard

intro
e|----------------------------------------------------------------|
B|----------------------------------------------------------------|
G|----------------------------------------------------------------|
D|----------------------------------------------------------------|  x4
A|------7--5\3-3------7--5\3-3------7--5\3-3------5--5/7-5--------|
E|--5-------------3-------------1-------------3-------------------|


prechorus
e|----------------------------------------------------------------|
B|----------------------------------------------------------------|
G|----------------------------------------------------------------|
D|--7~------5~------3~------5~------------------------------------|  x1
A|--7~------5~------3~------5~------------------------------------|
E|--5~------3~------1~------3~------------------------------------|


chorus 1
..............
: (guitar 1)
: e|--------------------------------------------------------------|
: B|--------------------------------------------------------------|
: G|--------------------------------------------------------------|
: D|--------------------------------------------------------------|  x2
: A|--77--7--5\3-3--555-7--5\3-3--33--7--5\3-3--555-5--5/7-5------|
: E|--55------------333-----------11------------333---------------|
:
: (guitar 2)
: e|--------------------------------------------------------------|
: B|--------------------------------------------------------------|
: G|--4-------------7-------------9-------------11----------------|
: D|--4-------------7-------------9-------------11----------------|  x2
: A|--2-------------5-------------7-------------9-----------------|
: E|--------------------------------------------------------------|
:.............


verse
e|----------------------------------------------------------------|
B|----------------------------------------------------------------|
G|----------------------------------------------------------------|
D|----------------------------------------------------------------|  x2
A|------7--5\3-3------7--5\3-3------7--5\3-3------5--5/7-5--------|
E|--5-------------3-------------1-------------3-------------------|

prechorus
e|----------------------------------------------------------------|
B|----------------------------------------------------------------|
G|----------------------------------------------------------------|
D|--7~------5~------3~------5~------------------------------------|  x1
A|--7~------5~------3~------5~------------------------------------|
E|--5~------3~------1~------3~------------------------------------|



chorus 2
..............
: (guitar 1)
: e|--------------------------------------------------------------|
: B|--------------------------------------------------------------|
: G|--------------------------------------------------------------|
: D|--------------------------------------------------------------|  x4
: A|--77--7--5\3-3--555-7--5\3-3--33--7--5\3-3--555-5--5/7-5------|
: E|--55------------333-----------11------------333---------------|
: (guitar 2)
: e|--------------------------------------------------------------|
: B|--------------------------------------------------------------|
: G|--4-------------7-------------9-------------11----------------|
: D|--4-------------7-------------9-------------11----------------|  x4
: A|--2-------------5-------------7-------------9-----------------|
: E|--------------------------------------------------------------|
: (guitar 3)
: e|--9-------------12------------14------------------------------|
: B|--------------------------------------------14----------------|
: G|--------------------------------------------------------------|
: D|--------------------------------------------------------------|  x1
: A|--------------------------------------------------------------|
: E|--------------------------------------------------------------|
:.............

e|----------------------------------------------------------------|
B|----------------------------------------------------------------|
G|----------------------------------------------------------------|
D|----------------------------------------------------------------|  x2
A|------7--5\3-3------7--5\3-3------7--5\3-3------5--5/7-5--------|
E|--5-------------3-------------1-------------3-------------------| 
                         fades until finish



| /  slide up
| \  slide down
| ~  vibrato
============================================================================
Tap to rate this tab
# A B C D E F G H I J K L M N O P Q R S T U V W X Y Z