Song name
# A B C D E F G H I J K L M N O P Q R S T U V W X Y Z

Misc Unsigned Bands - Backyard Novicane - Song1 tab

----------------------------------------------------------------------------
			     song 1- byn
----------------------------------------------------------------------------
Tabbed by: byn guitarist caden
Email:

Tuning:standard

intro (prechorus)
e|-------------------------------------------------------------------------|
B|-------------------------------------------------------------------------|
G|-------------------------------------------------------------------------|
D|--7-----5-----3-----3----------------------------------------------------|
A|--7-----5-----3-----3----------------------------------------------------|
E|--5-----3-----1-----1----------------------------------------------------|


verse
e|-------------------------------------------------------------------------|
B|-------------------------------------------------------------------------|
G|-------------------------------------------------------------------------|
D|--33333----55555----77777---7777-----------------------------------------|
A|--33333----55555----77777---7777-----------------------------------------|
E|--11111----33333----55555---5555-----------------------------------------|
  pm...............................

chorus
e|-------------------------------------------------------------------------|
B|-------------------------------------------------------------------------|
G|-------------------------------------------------------------------------|
D|--77777777----55555555----3333333333333333-------------------------------|
A|--77777777----55555555----3333333333333333-------------------------------|
E|--55555555----33333333----1111111111111111-------------------------------|


verse 2
e|-------------------------------------------------------------------------|
B|-------------------------------------------------------------------------|
G|-------------------------------------------------------------------------|
D|-------7---------5---------3---------3-----------------------------------|
A|----7----7----5----5----3----3----3----3---------------------------------|
E|--5---------3---------1---------1----------------------------------------|


outro
e|-------------------------------------------------------------------------|
B|-------------------------------------------------------------------------|
G|-------------------------------------------------------------------------|
D|--7~---------------------------------------------------------------------|
A|--7~---------------------------------------------------------------------|
E|--5~---------------------------------------------------------------------|

order
-intro x1
-chorus x2
-verse x4
-prechorus (intro) x1
-chorus x2
-verse2 x2
-chorus x2
-outro x1


| /   slide up
| \   slide down
| h   hammer-on
| p   pull-off
| ~   vibrato
| +   harmonic
| x   Mute note
| pm  palm mute
Tap to rate this tab
# A B C D E F G H I J K L M N O P Q R S T U V W X Y Z