Song name
# A B C D E F G H I J K L M N O P Q R S T U V W X Y Z

Misc Unsigned Bands - Blinded Mind - Stairs To Fear tab

e|-----------------------------------------------------------|
B|----------------------------------------12121212--14141414-|
G|--------------------12121212--14141414---0-0-0-0---0-0-0-0-|
D|12121212--14141414---0-0-0-0---0-0-0-0~~-------------------|
A|-0-0-0-0---0-0-0-0~~---------------------------------------|
D|-----------------------------------------------------------|

e|-12121212--14141414--15151515^|
B|--0-0-0-0---0-0-0-0---0-0-0-0-|
G|------------------------------|
D|------------------------------|
A|------------------------------|
D|------------------------------|
verse:w\fingers         |use fingers at this point
e|--------------------4-|------------------------------0-7-5/7^|
B|-2----2---------------|------------------------0-7-5---------|
G|---2-------2-2-3-5----|-------------------0-7-5--------------|
D|---1-----1-1----------|-0-7-5-------0-7-5--------------------|
A|-2---2-2-----------3-4|-------0-7-5--------------------------|
D|----------------------|--------------------------------------|
chorus Guitar 1
e|-------14-13-------14-13-------14-13-------14-13-------14p13/14-13^|
B|-15----------15----------15----------15----------15----------------|
G|----13----------13----------14----------14----------13-------------|
D|-------------------------------------------------------------------|
A|-------------------------------------------------------------------|
D|-------------------------------------------------------------------|
Guitar 2
e|-------------------------------------------|
B|-------------------------------------------|
G|-------------------------------------------|
D|-5555-3333-8888-7777---5555-4444-7777-6666-|
A|-3333-1111-6666-5555---3333-2222-5555-4444-|
D|-------------------------------------------|
do intro again then do verse thn do chorus to this super fast part

e|-------------------------------0-7-5-----|
B|-------------------------0-7-5-----------|
G|-------------------0-7-5-----------------|
D|-0-7-5-------0-7-5--------------------0~~|
A|-------0-7-5--------------------------0~~|
D|-----------------------------------------|
Tap to rate this tab
 
# A B C D E F G H I J K L M N O P Q R S T U V W X Y Z