Song name
# A B C D E F G H I J K L M N O P Q R S T U V W X Y Z

Misc Unsigned Bands - Avellin - Dont You Sweat It tab

"Don't You Sweat It" - AVELLIN

Standard Tuning

Note: Numbers in Parentheses *() are two-digit numbers.

Pick Slide(Fiddle): /

Intro (Guitar 1)

E|-------------------------------------|
B|-------------------------------------|
G|-------------------------------------|
D|-5555-9--5555-9--5555-9--5-5-77-5~~~~|
A|-5555-9--5555-9--5555-9--5-5-77-5~~~~|
E|-5555-9--5555-9--5555-9--5-5-77-5~~~~|


Intro (Guitar 2)

E|----------------------------------------------|
B|----------------------------------------------|
G|----------------------------------------------|
D|-7777-(11)--7777-(11)--7777-(11)--7-7-99-5~~~~|
A|-7777-(11)--7777-(11)--7777-(11)--7-7-99-5~~~~|
E|-7777-(11)--7777-(11)--7777-(11)--7-7-99-5~~~~|


Verse 1 (Guitar 1)

E|----------------Repeat 5X-----|
B|------------------------------|
G|------------------------------|
D|-(11)(11)(11)--999--7-7-------|
A|-(11)(11)(11)--999--7-7-------|
E|-(11)(11)(11)--999--7-7-------|


Verse 1 (Guitar 2)

E|-----------------------Repeat 5X---------|
B|-----------------------------------------|
G|-----------------------------------------|
D|-(15)(15)(15)--(13)(13)(13)--(11)-(11)---|
A|-(15)(15)(15)--(13)(13)(13)--(11)-(11)---|
E|-(15)(15)(15)--(13)(13)(13)--(11)-(11)---|


Chorus (Guitar 1)

E|---------------------Repeat 4X------|
B|------------------------------------|
G|------------------------------------|
D|-5555-9--5555-9--5555-9--5-5-77-5---|
A|-5555-9--5555-9--5555-9--5-5-77-5---|
E|-5555-9--5555-9--5555-9--5-5-77-5---|


Chorus (Guitar 2)

E|--------------------Repeat 4X----------------|
B|---------------------------------------------|
G|---------------------------------------------|
D|-7777-(11)--7777-(11)--7777-(11)--7-7-99-7---|
A|-7777-(11)--7777-(11)--7777-(11)--7-7-99-7---|
E|-7777-(11)--7777-(11)--7777-(11)--7-7-99-7---|


Post-Chorus (Guitar 1)

E|----------------------------------------------|
B|----------------------------------------------|
G|----------------------------------------------|
D|-5-5-5-5-/77-7-7-7--/99-9-9-9--/555-/777-/5---|
A|-5-5-5-5-/77-7-7-7--/99-9-9-9--/555-/777-/5---|
E|-5-5-5-5-/77-7-7-7--/99-9-9-9--/555-/777-/5---|


Post-Chorus (Guitar 2)

E|----------------------------------------------------------------|
B|----------------------------------------------------------------|
G|----------------------------------------------------------------|
D|-7-7-7-7-/99-9-9-9--/(11)(11)-(11)-(11)-(11)--/777-/999-/(11)---|
A|-7-7-7-7-/99-9-9-9--/(11)(11)-(11)-(11)-(11)--/777-/999-/(11)---|
E|-7-7-7-7-/99-9-9-9--/(11)(11)-(11)-(11)-(11)--/777-/999-/(11)---|


Bridge (Guitar 1)

E|------------------Repeat 4X-----------|
B|--------------------------------------|
G|--------------------------------------|
D|-44444444-77777777-99999999-55555555--|
A|-44444444-77777777-99999999-55555555--|
E|-44444444-77777777-99999999-55555555--|


Bridge (Guitar 2)

E|-------------------------Repeat 4X----------------------------|
B|--------------------------------------------------------------|
G|--------------------------------------------------------------|
D|-44444444-99999999-(13)(13)(13)(13)(13)(13)(13)(13)-99999999--|
A|-44444444-99999999-(13)(13)(13)(13)(13)(13)(13)(13)-99999999--|
E|-44444444-99999999-(13)(13)(13)(13)(13)(13)(13)(13)-99999999--|


Verse 2 (Guitar 1)

E|---------------------Repeat 4X------|
B|------------------------------------|
G|------------------------------------|
D|-5555-9--5555-9--5555-9--5-5-77-5---|
A|-5555-9--5555-9--5555-9--5-5-77-5---|
E|-5555-9--5555-9--5555-9--5-5-77-5---|


Verse 2 (Guitar 2)

E|-----------------------Repeat 4X-------------|
B|---------------------------------------------|
G|---------------------------------------------|
D|-7777-(11)--7777-(11)--7777-(11)--7-7-99-7---|
A|-7777-(11)--7777-(11)--7777-(11)--7-7-99-7---|
E|-7777-(11)--7777-(11)--7777-(11)--7-7-99-7---|


Chorus (Guitar 1)

E|---------------------Repeat 4X------|
B|------------------------------------|
G|------------------------------------|
D|-5555-9--5555-9--5555-9--5-5-77-5---|
A|-5555-9--5555-9--5555-9--5-5-77-5---|
E|-5555-9--5555-9--5555-9--5-5-77-5---|


Chorus (Guitar 2)

E|--------------------Repeat 4X----------------|
B|---------------------------------------------|
G|---------------------------------------------|
D|-7777-(11)--7777-(11)--7777-(11)--7-7-99-7---|
A|-7777-(11)--7777-(11)--7777-(11)--7-7-99-7---|
E|-7777-(11)--7777-(11)--7777-(11)--7-7-99-7---|


Post-Chorus (Guitar 1)

E|----------------------------------------------|
B|----------------------------------------------|
G|----------------------------------------------|
D|-5-5-5-5-/77-7-7-7--/99-9-9-9--/555-/777-/5~~~|
A|-5-5-5-5-/77-7-7-7--/99-9-9-9--/555-/777-/5~~~|
E|-5-5-5-5-/77-7-7-7--/99-9-9-9--/555-/777-/5~~~|


Post-Chorus (Guitar 2)

E|----------------------------------------------------------------|
B|----------------------------------------------------------------|
G|----------------------------------------------------------------|
D|-7-7-7-7-/99-9-9-9--/(11)(11)-(11)-(11)-(11)--/777-/999-/(11)---|
A|-7-7-7-7-/99-9-9-9--/(11)(11)-(11)-(11)-(11)--/777-/999-/(11)---|
E|-7-7-7-7-/99-9-9-9--/(11)(11)-(11)-(11)-(11)--/777-/999-/(11)---|


Outro (Guitar 1)

E|-------|
B|-------|
G|-------|
D|-77-5--|
A|-77-5--|
E|-77-5--|
Tap to rate this tab
# A B C D E F G H I J K L M N O P Q R S T U V W X Y Z