Guitaretab - guitar tabs
Song name
# A B C D E F G H I J K L M N O P Q R S T U V W X Y Z

Misc Unsigned Bands - On The Edge - Mobile Destruction tab

-------------------------------------------------------------------------------
			     MOBILE DESTRUCTION: - On The Edge
-------------------------------------------------------------------------------
Tabbed by: anthony
Email: duffman_rulz01@hotmail.com

E----------------------------------------------------------------------|
B--------------------------------1-------------------------------------|
G-----------0----------0------0------------2---------------------------|
D--------2----------0------2------------0------------------------------|
A-----2----------2------3------------2---------------------------------|
E---0----------3-------------------0-----------------------------------|


E G D C E


E----------------------------------------------------------------------|
B----------------------------------------------------------------------|
G---------------------------------55555555-----------------------------|
D---22222222---55555555---55555555---22222222--------------------------|
A---22222222---55555555---33333333---22222222--------------------------|
E---00000000---33333333------------------00000000----------------------|
Palm muted
[ Tab from: http://www.guitaretab.com/m/misc-unsigned-bands/80929.html ]
E----------------------------------------------------------------------|
B----------------------------------------------------------------------|
G---------------------------------55555555-----------------------------|
D---22222222---55555555---55555555---22222222--------------------------|
A---22222222---55555555---33333333---22222222--------------------------|
E---00000000---33333333------------------00000000----------------------|


E G D C E

E----------------------------------------------------------------------|
B----------------------------------------------------------------------|
G12h14---12h14---10h12---10h12---8h10---8h10---/15\12-----------------|
D----------------------------------------------------------------------|
A----------------------------------------------------------------------|
E----------------------------------------------------------------------|

E G D C E


E----------------------------------------------------------------------|
B--------------------------------1-------------------------------------|
G-----------0----------0------0------------2---------------------------|
D--------2----------0------2------------0------------------------------|
A-----2----------2------3------------2---------------------------------|
E---0----------3-------------------0-----------------------------------|

E  Chord

E------------------------0--------------------------------------------|
B------------------0--------------------------------------------------|
G------------0--------------------------------------------------------|
D---------2-----------------------------------------------------------|
A------2--------------------------------------------------------------|
E---0-----------------------------------------------------------------|
Related for On The Edge - Mobile Destruction tab