Guitaretab - guitar tabs
Song name
# A B C D E F G H I J K L M N O P Q R S T U V W X Y Z

Misc Unsigned Bands - Tear At The Walls - The Ones You Cant Forget tab

Tear at the Walls 
The ones you can't forget

this is one of their older songs but i still love it
you guys can go to myspace to find them, and yes they do rock
[ Tab from: http://www.guitaretab.com/m/misc-unsigned-bands/80930.html ]
e|--------------------------------------|
B|--------------------------------------|
G|---9-10-9---7-9-7---12-12121212-------|
D|---0--0-0---0-0-0---15-14141414---X3--|
A|--------------------------------------|
D|--------------------------------------|
that is the intro then this part comes in
e|-------------------------------------------------------------------------|
B|-------------------------------------------------------------------------|
G|-------------------------------------------------------------------------|
D|---10-9-5-3-333-/-10-9-5-7-777-------------------------------------------|
A|---10-9-5-3-333-/-10-9-5-7-777-------------x6----------------------------|
D|---10-9-5-3-333-/-10-9-5-7-777-------------------------------------------|

that's about all i have tabbed out right now

this is my first tab so 
DON'T JUDGE ME!!!
lol

Related for Tear At The Walls - The Ones You Cant Forget tab
Advertisement will be closed in 10 seconds