Guitaretab - guitar tabs
Song name
# A B C D E F G H I J K L M N O P Q R S T U V W X Y Z

Misc Unsigned Bands - Riserevenge - Nothing In The Mirror tab

intro (distortion)
Eb|-----------------------------------------------------------------|
Bb|-----------------------------------------------------------------|
F#|-0-0-0-0-0-0-0-x-5-5-5-5-5-5-5-x-4-4-4-4-4-4-4-x-7-7-7-7-7-7-7---|
C#|-2-2-2-2-2-2-2-x-5-5-5-5-5-5-5-x-5-5-5-5-5-5-5-x-7-7-7-7-7-7-7---|
G#|-2-2-2-2-2-2-2-x-3-3-3-3-3-3-3-x-5-5-5-5-5-5-5-x-5-5-5-5-5-5-5---|
Eb|-0-0-0-0-0-0-0-x-3-3-3-3-3-3-3-x-3-3-3-3-3-3-3-x-5-5-5-5-5-5-5---|x4

Eb|----------------|
Bb|----------------|
F#|-7-7-7-7-7-7-7--|
C#|- 7-7-7-7-7-7-7-|
G#|-5-5-5-5-5-5-5--|
Eb|-5-5-5-5-5-5-5--|


Eb|--------------------------------------------------------------------------|
Bb|--------------------------------------------------------------------------|
F#|-0-0-x-5-5-5-5-5-x-5-5-x-4-4-4-4-4-xx-0-0-x-5-5-5-5-5-x-5-5-x-9-9-9-9-9---|
C#|-2-2-x-5-5-5-5-5-x-7-7-x-5-5-5-5-5-xx-2-2-x-5-5-5-5-5-x-7-7-x-9-9-9-9-9---|
G#|-2-2-x-3-3-3-3-3-x-7-7-x-5-5-5-5-5-xx-2-2-x-3-3-3-3-3-x-7-7-x-7-7-7-7-7---|
Eb|-0-0-x-3-3-3-3-3-x-5-5-x-3-3-3-3-3-xx-0-0-x-3-3-3-3-3-x-5-5-x-7-7-7-7-7---|x4
[ Tab from: http://www.guitaretab.com/m/misc-unsigned-bands/80979.html ]
Eb|----
Bb|----
F#|-9-9-9-|
C#|-9-9-9-|
G#|-7-7-7-|
Eb|-7-7-7-|

Riff:
Eb|---------------------------------------------------|
Bb|---------------------------------------------------|
F#|-0--0-0--0-x-5--5-5--5-x-5--5-5--5-x-4--4-4--4-----|
C#|-2--2-2--2-x-5--5-5--5-x-7--7-7--7-x-5--5-5--5-----|
G#|-2--2-2--2-x-3--3-3--3-x-7--7-7--7-x-5--5-5--5-----|
Eb|-0--0-0--0-x-3--3-3--3-x-5--5-5--5-x-3--3-3--3-----|

 Eb|-----------------------------------------------------------|
Bb|------------------------------------------------------------|
F#|-0--0-0--0-x-5--5-5--5-x-5--5-5--5-x-9--9-99-9-9-9-9-9-9-9-|
C#|-2--2-2--2-x-5--5-5--5-x-7--7-7--7-x-9--9-99-9-9-9-9-9-9-9-|
G#|-2--2-2--2-x-3--3-3--3-x-7--7-7--7-x-7--7-77-7-7-7-7-7-7-7-|
Eb|-0--0-0--0-x-3--3-3--3-x-5--5-5--5-x-7--7-77-7-7-7-7-7-7-7-|

x

Eb|--------------------------------------------|
Bb|--------------------------------------------|
F#|-7-7-7---5-5-5-5-----4-4-4--0-0-0-0 --------|
C#|-7-7-7---5-5-5-5-----5-5-5--2-2-2-2 --------|
G#|-5-5-5-x-3-3-3-3-xx-5-5-5-x-2-2-2-2 --------|
Eb|-5-5-5-x-3-3-3-3-xx-3-3-3-x-0-0-0-0---------| .| x
Related for Riserevenge - Nothing In The Mirror tab