Song name
# A B C D E F G H I J K L M N O P Q R S T U V W X Y Z

Misc Unsigned Bands - Cross Romantics - Muse Of Music tab

This Is What I Have So Far, It Sounds Right To Me,

Rhythm Guitar:
E/------------------------------------------------------------/
B/---3------------5------------8----------7-------------------/
G/---0------------0------------0----------0-------------------/
D/---0---(x 5)-----0---(x 5)-----0---(x 5)---0---(x 5)--------/
A/---3------------5------------7----------7-------------------/
E/------------------------------------------------------------/

Bass:
G/------------------------------------------------------/
D/------------------------------------------------------/
A/---333333333333--55555555--77777777--99999999---------/
E/------------------------------------------------------/

Hope I have it right.....
Tap to rate this tab
# A B C D E F G H I J K L M N O P Q R S T U V W X Y Z