Song name
# A B C D E F G H I J K L M N O P Q R S T U V W X Y Z

Misc Unsigned Bands - Synchole - Shipwreck tab

Guitar I
                                                    
E||------------------------------------------------|
B||------------------------------------------------|
G||------------------------------------------------|
D||------------------------------------------------|
A||------12-12-10-10-12-12-13-13-12-12-10-10-12-12-|
D||--0-0-------------------------------------------|


                                                 
------------------------------------------------|
------------------------------------------------|
------------------------------------------------|
------------------------------------------------|
------12-12-10-10-12-12-13-13-12-12-10-10-12-12-|
--0-0-------------------------------------------|


                                                 
------------------------------------------------|
------------------------------------------------|
------------------------------------------------|
------------------------------------------------|
------12-12-10-10-12-12-13-13-12-12-10-10-12-12-|
--8-8-------------------------------------------|


                                                 
------------------------------------------------|
------------------------------------------------|
------------------------------------------------|
------------------------------------------------|
------12-12-10-10-12-12-13-13-12-12-10-10-12-12-|
--8-8-------------------------------------------|


                                                   
--------------------------------------------------|
--------------------------------------------------|
--------------------------------------------------|
--------------------------------------------------|
--------12-12-10-10-12-12-13-13-12-12-10-10-12-12-|
--10-10-------------------------------------------|


                                                   
--------------------------------------------------|
--------------------------------------------------|
--------------------------------------------------|
--------------------------------------------------|
--------12-12-10-10-12-12-13-13-12-12-10-10-12-12-|
--10-10-------------------------------------------|


                                                 
------------------------------------------------|
------------------------------------------------|
------------------------------------------------|
------------------------------------------------|
--8-8-12-12-10-10-12-12-13-13-12-12-10-10-12-12-|
------------------------------------------------|


                                                 
------------------------------------------------|
------------------------------------------------|
------------------------------------------------|
------------------------------------------------|
--8-8-12-12-10-10-12-12-13-13-12-12-10-10-12-12-|
------------------------------------------------|


                                                 
------------------------------------------------|
------------------------------------------------|
------------------------------------------------|
------------------------------------------------|
------12-12-10-10-12-12-13-13-12-12-10-10-12-12-|
--0-0-------------------------------------------|


                                                 
------------------------------------------------|
------------------------------------------------|
------------------------------------------------|
------------------------------------------------|
------12-12-10-10-12-12-13-13-12-12-10-10-12-12-|
--8-8-------------------------------------------|


                                                   
--------------------------------------------------|
--------------------------------------------------|
--------------------------------------------------|
--------------------------------------------------|
--------12-12-10-10-12-12-13-13-12-12-10-10-12-12-|
--10-10-------------------------------------------|


                                                 
------------------------------------------------|
------------------------------------------------|
------------------------------------------------|
------------------------------------------------|
--8-8-12-12-10-10-12-12-13-13-12-12-10-10-12-12-|
------------------------------------------------|


                                                 
------------------------------------------------|
------------------------------------------------|
------------------------------------------------|
------------------------------------------------|
------12-12-10-10-12-12-13-13-12-12-10-10-12-12-|
--0-0-------------------------------------------|


                                                 
------------------------------------------------|
------------------------------------------------|
------------------------------------------------|
------------------------------------------------|
------12-12-10-10-12-12-13-13-12-12-10-10-12-12-|
--8-8-------------------------------------------|


                                                   
--------------------------------------------------|
--------------------------------------------------|
--------------------------------------------------|
--------------------------------------------------|
--------12-12-10-10-12-12-13-13-12-12-10-10-12-12-|
--10-10-------------------------------------------|


                                                                             
------------------------------------------------|---------------------------|
------------------------------------------------|---------------------------|
------------------------------------------------|---------------------------|
------------------------------------------------|--------------15-----------|
--8-8-12-12-10-10-12-12-13-13-12-12-10-10-12-12-|--0-----------0------------|
------------------------------------------------|--0--0--0--0--0---0--0--0--|


                                                          
-----------------------------|---------------------------|
-----------------------------|---------------------------|
-----------------------------|---------------------------|
-----15--------15p-14--14~---|--------------15-----------|
-----0---------0-------0-----|--0-----------0------------|
--0--0---0--0--0-------------|--0--0--0--0--0---0--0--0--|


                                                          
-----------------------------|---------------------------|
-----------------------------|---------------------------|
-----------------------------|---------------------------|
-----15--------15p-14--14~---|--------------15-----------|
-----0---------0-------0-----|--0-----------0------------|
--0--0---0--0--0-------------|--0--0--0--0--0---0--0--0--|


                                                          
-----------------------------|---------------------------|
-----------------------------|---------------------------|
-----------------------------|---------------------------|
-----15--------15p-14--14~---|--------------15-----------|
-----0---------0-------0-----|--0-----------0------------|
--0--0---0--0--0-------------|--0--0--0--0--0---0--0--0--|


                                                          
-----------------------------|---------------------------|
-----------------------------|---------------------------|
-----------------------------|---------------------------|
-----15--------15p-14--14~---|--------------15-----------|
-----0---------0-------0-----|--0-----------0------------|
--0--0---0--0--0-------------|--0--0--0--0--0---0--0--0--|


                                                          
-----------------------------|---------------------------|
-----------------------------|---------------------------|
-----------------------------|---------------------------|
-----15--------15p-14--14~---|--------------15-----------|
-----0---------0-------0-----|--0-----------0------------|
--0--0---0--0--0-------------|--0--0--0--0--0---0--0--0--|


                                                                
-----------------------------|---------------------------------|
-----------------------------|---------------------------------|
-----------------------------|---------------------------------|
-----15--------15p-14--14~---|--0--------------8---------------|
-----0---------0-------0-----|--0--------------8---------------|
--0--0---0--0--0-------------|--0--0-0-0-0-0-0-8-8-8-8-8-8-8-8-|


                                                                    
---------------------------------|---------------------------------|
---------------------------------|---------------------------------|
---------------------------------|---------------------------------|
--0--------------8---------------|--0--------------8---------------|
--0--------------8---------------|--0--------------8---------------|
--0--0-0-0-0-0-0-8-8-8-8-8-8-8-8-|--0--0-0-0-0-0-0-8-8-8-8-8-8-8-8-|


                                                                    
---------------------------------|---------------------------------|
---------------------------------|---------------------------------|
---------------------------------|---------------------------------|
--0--------------8---------------|--0--------------8---------------|
--0--------------8---------------|--0--------------8---------------|
--0--0-0-0-0-0-0-8-8-8-8-8-8-8-8-|--0--0-0-0-0-0-0-8-8-8-8-8-8-8-8-|


                                                                    
---------------------------------|---------------------------------|
---------------------------------|---------------------------------|
---------------------------------|---------------------------------|
--0--------------8---------------|--0--------------8---------------|
--0--------------8---------------|--0--------------8---------------|
--0--0-0-0-0-0-0-8-8-8-8-8-8-8-8-|--0--0-0-0-0-0-0-8-8-8-8-8-8-8-8-|


                                                                   
---------------------------------|--------------------------------|
---------------------------------|--------------------------------|
---------------------------------|--------------------------------|
--0--------------8---------------|--0--------------0--------------|
--0--------------8---------------|--0--------------0--------------|
--0--0-0-0-0-0-0-8-8-8-8-8-8-8-8-|--0--0-0-0-0-0-0-0--0-0-0-0-0-0-|


                                                                 
-------------------------------|--------------------------------|
-------------------------------|--------------------------------|
-------------------------------|--------------------------------|
--0--------------3------3------|--0--------------0--------------|
--0--------------3------3------|--0--------------0--------------|
--0--0-0-0-0-0-0-3--3-3-3--3-3-|--0--0-0-0-0-0-0-0--0-0-0-0-0-0-|


                                                                 
-------------------------------|--------------------------------|
-------------------------------|--------------------------------|
-------------------------------|--------------------------------|
--0--------------5------5------|--0--------------0--------------|
--0--------------3--3-3-3--3-3-|--0--------------0--------------|
--0--0-0-0-0-0-0---------------|--0--0-0-0-0-0-0-0--0-0-0-0-0-0-|


                                                                 
-------------------------------|--------------------------------|
-------------------------------|--------------------------------|
-------------------------------|--------------------------------|
--0--------------3------3------|--0--------------0--------------|
--0--------------3------3------|--0--------------0--------------|
--0--0-0-0-0-0-0-3--3-3-3--3-3-|--0--0-0-0-0-0-0-0--0-0-0-0-0-0-|


                                
-------------------------------|
-------------------------------|
-------------------------------|
--0--------------5------5------|
--0--------------3--3-3-3--3-3-|
--0--0-0-0-0-0-0---------------|


                                                 
------------------------------------------------|
------------------------------------------------|
------------------------------------------------|
------------------------------------------------|
------12-12-10-10-12-12-13-13-12-12-10-10-12-12-|
--0-0-------------------------------------------|


                                                 
------------------------------------------------|
------------------------------------------------|
------------------------------------------------|
------------------------------------------------|
------12-12-10-10-12-12-13-13-12-12-10-10-12-12-|
--0-0-------------------------------------------|


                                                 
------------------------------------------------|
------------------------------------------------|
------------------------------------------------|
------------------------------------------------|
------12-12-10-10-12-12-13-13-12-12-10-10-12-12-|
--8-8-------------------------------------------|


                                                 
------------------------------------------------|
------------------------------------------------|
------------------------------------------------|
------------------------------------------------|
------12-12-10-10-12-12-13-13-12-12-10-10-12-12-|
--8-8-------------------------------------------|


                                                   
--------------------------------------------------|
--------------------------------------------------|
--------------------------------------------------|
--------------------------------------------------|
--------12-12-10-10-12-12-13-13-12-12-10-10-12-12-|
--10-10-------------------------------------------|


                                                   
--------------------------------------------------|
--------------------------------------------------|
--------------------------------------------------|
--------------------------------------------------|
--------12-12-10-10-12-12-13-13-12-12-10-10-12-12-|
--10-10-------------------------------------------|


                                                 
------------------------------------------------|
------------------------------------------------|
------------------------------------------------|
------------------------------------------------|
--8-8-12-12-10-10-12-12-13-13-12-12-10-10-12-12-|
------------------------------------------------|


                                                 
------------------------------------------------|
------------------------------------------------|
------------------------------------------------|
------------------------------------------------|
--8-8-12-12-10-10-12-12-13-13-12-12-10-10-12-12-|
------------------------------------------------|


                                                 
------------------------------------------------|
------------------------------------------------|
------------------------------------------------|
------------------------------------------------|
------12-12-10-10-12-12-13-13-12-12-10-10-12-12-|
--0-0-------------------------------------------|


                                                 
------------------------------------------------|
------------------------------------------------|
------------------------------------------------|
------------------------------------------------|
------12-12-10-10-12-12-13-13-12-12-10-10-12-12-|
--8-8-------------------------------------------|


                                                   
--------------------------------------------------|
--------------------------------------------------|
--------------------------------------------------|
--------------------------------------------------|
--------12-12-10-10-12-12-13-13-12-12-10-10-12-12-|
--10-10-------------------------------------------|


                                                 
------------------------------------------------|
------------------------------------------------|
------------------------------------------------|
------------------------------------------------|
--8-8-12-12-10-10-12-12-13-13-12-12-10-10-12-12-|
------------------------------------------------|


                                                 
------------------------------------------------|
------------------------------------------------|
------------------------------------------------|
------------------------------------------------|
------12-12-10-10-12-12-13-13-12-12-10-10-12-12-|
--0-0-------------------------------------------|


                                                 
------------------------------------------------|
------------------------------------------------|
------------------------------------------------|
------------------------------------------------|
------12-12-10-10-12-12-13-13-12-12-10-10-12-12-|
--8-8-------------------------------------------|


                                                   
--------------------------------------------------|
--------------------------------------------------|
--------------------------------------------------|
--------------------------------------------------|
--------12-12-10-10-12-12-13-13-12-12-10-10-12-12-|
--10-10-------------------------------------------|


                                                                             
------------------------------------------------|---------------------------|
------------------------------------------------|---------------------------|
------------------------------------------------|---------------------------|
------------------------------------------------|--------------15-----------|
--8-8-12-12-10-10-12-12-13-13-12-12-10-10-12-12-|--0-----------0------------|
------------------------------------------------|--0--0--0--0--0---0--0--0--|


                                                          
-----------------------------|---------------------------|
-----------------------------|---------------------------|
-----------------------------|---------------------------|
-----15--------15p-14--14~---|--------------15-----------|
-----0---------0-------0-----|--0-----------0------------|
--0--0---0--0--0-------------|--0--0--0--0--0---0--0--0--|


                                                          
-----------------------------|---------------------------|
-----------------------------|---------------------------|
-----------------------------|---------------------------|
-----15--------15p-14--14~---|--------------15-----------|
-----0---------0-------0-----|--0-----------0------------|
--0--0---0--0--0-------------|--0--0--0--0--0---0--0--0--|


                                                          
-----------------------------|---------------------------|
-----------------------------|---------------------------|
-----------------------------|---------------------------|
-----15--------15p-14--14~---|--------------15-----------|
-----0---------0-------0-----|--0-----------0------------|
--0--0---0--0--0-------------|--0--0--0--0--0---0--0--0--|


                                                          
-----------------------------|---------------------------|
-----------------------------|---------------------------|
-----------------------------|---------------------------|
-----15--------15p-14--14~---|--------------15-----------|
-----0---------0-------0-----|--0-----------0------------|
--0--0---0--0--0-------------|--0--0--0--0--0---0--0--0--|


                                                          
-----------------------------|---------------------------|
-----------------------------|---------------------------|
-----------------------------|---------------------------|
-----15--------15p-14--14~---|--------------15-----------|
-----0---------0-------0-----|--0-----------0------------|
--0--0---0--0--0-------------|--0--0--0--0--0---0--0--0--|


                                                               
-----------------------------|--------------------------------|
-----------------------------|--------------------------------|
-----------------------------|--------------------------------|
-----15--------15p-14--14~---|--0--------------0--------------|
-----0---------0-------0-----|--0--------------0--------------|
--0--0---0--0--0-------------|--0--0-0-0-0-0-0-0--0-0-0-0-0-0-|


                                                                 
-------------------------------|--------------------------------|
-------------------------------|--------------------------------|
-------------------------------|--------------------------------|
--0--------------3------3------|--0--------------0--------------|
--0--------------3------3------|--0--------------0--------------|
--0--0-0-0-0-0-0-3--3-3-3--3-3-|--0--0-0-0-0-0-0-0--0-0-0-0-0-0-|


                                                                 
-------------------------------|--------------------------------|
-------------------------------|--------------------------------|
-------------------------------|--------------------------------|
--0--------------5------5------|--0--------------0--------------|
--0--------------3--3-3-3--3-3-|--0--------------0--------------|
--0--0-0-0-0-0-0---------------|--0--0-0-0-0-0-0-0--0-0-0-0-0-0-|


                                                                 
-------------------------------|--------------------------------|
-------------------------------|--------------------------------|
-------------------------------|--------------------------------|
--0--------------3------3------|--0--------------0--------------|
--0--------------3------3------|--0--------------0--------------|
--0--0-0-0-0-0-0-3--3-3-3--3-3-|--0--0-0-0-0-0-0-0--0-0-0-0-0-0-|


                                
-------------------------------|
-------------------------------|
-------------------------------|
--0--------------5------5------|
--0--------------3--3-3-3--3-3-|
--0--0-0-0-0-0-0---------------|


                                                 
------------------------------------------------|
------------------------------------------------|
------------------------------------------------|
------------------------------------------------|
------12-12-10-10-12-12-13-13-12-12-10-10-12-12-|
--0-0-------------------------------------------|


                                                 
------------------------------------------------|
------------------------------------------------|
------------------------------------------------|
------------------------------------------------|
------12-12-10-10-12-12-13-13-12-12-10-10-12-12-|
--0-0-------------------------------------------|


                                                 
------------------------------------------------|
------------------------------------------------|
------------------------------------------------|
------------------------------------------------|
------12-12-10-10-12-12-13-13-12-12-10-10-12-12-|
--8-8-------------------------------------------|


                                                              
----------------------------------------|-------------------||
----------------------------------------|-------------------||
----------------------------------------|-------------------||
----------------------------------------|--0----------------||
--0-0-12-12-10-10-0-0-3-3-0-0-10-10-0-0-|--0----------------||
----------------------------------------|--0----------------||

Guitar III
                                                                               
E||------------------|------------------|------------------|------------------|
B||------------------|------------------|------------------|------------------|
G||------------------|------------------|------------------|------------------|
D||------------------|------------------|------------------|------------------|
A||------------------|------------------|------------------|------------------|
D||------------------|------------------|------------------|------------------|


                                                                            
------------------|------------------|------------------|------------------|
------------------|------------------|------------------|------------------|
------------------|------------------|------------------|------------------|
------------------|------------------|------------------|------------------|
------------------|------------------|------------------|------------------|
------------------|------------------|------------------|------------------|


                                                                
------------------------|--------------------------------------|
------------------------|--------------------------------------|
------------------------|--------------------------------------|
------------------------|--------------------17----------------|
--17------------17--19--|--20----19----20----------20----19----|
------------------------|--------------------------------------|


                                                              
----------------------17--|--18---17-------------------------|
------------------18------|----------18--18/20---18-17---18~-|
--------------19----------|----------------------------------|
--19~---------------------|----------------------------------|
--------------------------|----------------------------------|
--------------------------|----------------------------------|


                                                                   
------------------|--------------------------|--------------------|
------------------|--17----18----17----------|--------------------|
------------------|--------------------19----|--------------------|
------------------|--------------------------|--19~---------------|
------------------|--------------------------|--------------------|
------------------|--------------------------|--------------------|


                                                                     
----------------------------|--------------------|------------------|
----------------------------|--------------------|------------------|
----------------------------|--15/---------------|------------------|
--17------------------------|--x-----------------|------------------|
--------20--19--17--15~-----|--13/---------------|------------------|
----------------------------|--------------------|------------------|


                                                                  
------------------|------------------|---------------------------|
------------------|------------------|---------------------------|
------------------|------------------|--------------10-----------|
------------------|------------------|--------------x------------|
------------------|------------------|--0-----------8------------|
------------------|------------------|--0--0--0--0------0--0--0--|


                                                        
---------------------------|---------------------------|
---------------------------|---------------------------|
-----10--------10/-9--9----|--------------10-----------|
-----x---------x------x----|--------------x------------|
-----8---------8/--7--7----|--0-----------8------------|
--0------0--0--------------|--0--0--0--0------0--0--0--|


                                                       
--------------------------|---------------------------|
--------------------------|---------------------------|
-----10-------------------|--------------10-----------|
-----x---------8/-7--7----|--------------x------------|
-----8---------x-----x----|--0-----------8------------|
--0------0--0--8/-7--7----|--0--0--0--0------0--0--0--|


                                                        
---------------------------|---------------------------|
---------------------------|---------------------------|
-----10--------10/-9--9----|--------------10-----------|
-----x---------x------x----|--------------x------------|
-----8---------8/--7--7----|--0-----------8------------|
--0------0--0--------------|--0--0--0--0------0--0--0--|


                                                                              
--------------------------|--12p10----10-12p10----10-13p10----10-13p10----10-|
--------------------------|--------11----------11----------11----------11----|
-----10-------------------|--------------------------------------------------|
-----x---------8/-7--7----|--------------------------------------------------|
-----8---------x-----x----|--------------------------------------------------|
--0------0--0--8/-7--7----|--------------------------------------------------|


                                                   
--12p10----10-12p10----10-13p10----10-13p10----10-|
--------11----------11----------11----------11----|
--------------------------------------------------|
--------------------------------------------------|
--------------------------------------------------|
--------------------------------------------------|


                                                   
--12p10----10-12p10----10-13p10----10-13p10----10-|
--------11----------11----------11----------11----|
--------------------------------------------------|
--------------------------------------------------|
--------------------------------------------------|
--------------------------------------------------|


                                                   
--12p10----10-12p10----10-13p10----10-13p10----10-|
--------11----------11----------11----------11----|
--------------------------------------------------|
--------------------------------------------------|
--------------------------------------------------|
--------------------------------------------------|


                                                                                
--15-13-12-12-13-12-10-10-12-10-8-8-10-8-6-6-|--8-6-5-5-6-5-3-3-5-3-1-1-3-1-0--|
---------------------------------------------|---------------------------------|
---------------------------------------------|---------------------------------|
---------------------------------------------|---------------------------------|
---------------------------------------------|---------------------------------|
---------------------------------------------|---------------------------------|


                                                   
--12p10----10-13p10----10-12p10----10-13p10----10-|
--------11----------11----------11----------11----|
--------------------------------------------------|
--------------------------------------------------|
--------------------------------------------------|
--------------------------------------------------|


                                                                      
--12p10----10-13p10----10-12p10----10-13p10----10-|------------------|
--------11----------11----------11----------11----|------------------|
--------------------------------------------------|------------------|
--------------------------------------------------|------------------|
--------------------------------------------------|------------------|
--------------------------------------------------|------------------|
Tap to rate this tab
 
# A B C D E F G H I J K L M N O P Q R S T U V W X Y Z