Song name
# A B C D E F G H I J K L M N O P Q R S T U V W X Y Z

Misc Unsigned Bands - In Memory Of - Changing Period tab

 the song is pretty eassy... it was written by In Memory Of

 to listen to the song and learn it go to

www.myspace.com/memoryoftrinity


intro after the drum line
E-------------------------------------|
B-------------------------------------|
G-----3----3----3/2--2-------2--------|
D--5-----5----5---------3--3-----3----| X4
A-------------------------------------|
D-------------------------------------|


E----------------------------------------------------------------|
B----------------------------------------------------------------|
G------7---7----7/5--5-------5---------7---7---7/5-5-----5-------|
D---8----8---8----------7--7----7----8---8---8-------7-7---7-----|
A----------------------------------------------------------------|
D----------------------------------------------------------------|


E--------------------------------------|
B--------------------------------------|
G-----3----3----3/2--2-------2---------|  X2
D--5-----5----5---------3--3-----3-----|
A--------------------------------------|
D--------------------------------------|


E------------------------------------------------------------|
B------------------------------------------------------------|
G------------------------------------------------------------|
D -5-5-5-5-5-5-5-5-5---3-3--3-3--5-5-5-5-5-5-5-5-5---3-3-----|
A -5-5-5-5-5-5-5-5-5---3-3--3-3--5-5-5-5-5-5-5-5-5---3-3-----|
D -5-5-5-5-5-5-5-5-5---3-3--3-3--5-5-5-5-5-5-5-5-5---3-3-----|

E -----------------------------------------------------------------------------------|
B -----------------------------------------------------------------------------------|
G-3-2-0-------------------------------------------------------8-7----7---------------|
D -------3--5-5-5-5-5-5-5-5-5--7-7--7-7---8-8-8-8-8-8-8-8-8-----10--10-8-10----------|
D -----------------------------------------------------------------------------------|
A -----------------------------------------------------------------------------------|
D -----------------------------------------------------------------------------------|


E--------------------------------------|
B--------------------------------------|
G-----3----3----3/2--2-------2---------|  X2
D--5-----5----5---------3--3-----3-----|
A--------------------------------------|
D--------------------------------------|


Verse.


           Every day seemed the same until i could call you mine......
E------------------------------------------------------------|
B------------------------------------------------------------|
G------------------------------------------------------------|
D -5-5-5-5-5-5-5-5-5---3-3--3-3--5-5-5-5-5-5-5-5-5---3-3-----|
A -5-5-5-5-5-5-5-5-5---3-3--3-3--5-5-5-5-5-5-5-5-5---3-3-----|
D -5-5-5-5-5-5-5-5-5---3-3--3-3--5-5-5-5-5-5-5-5-5---3-3-----|

E -----------------------------------------------------------------------------------|
B -----------------------------------------------------------------------------------|
G-3-2-0-------------------------------------------------------8-7----7---------------|
D -------3--5-5-5-5-5-5-5-5-5--7-7--7-7---8-8-8-8-8-8-8-8-8-----10--10-8-10----------|
D -----------------------------------------------------------------------------------|
A -----------------------------------------------------------------------------------|
D -----------------------------------------------------------------------------------|


E--------------------------------------|
B--------------------------------------|
G-----3----3----3/2--2-------2---------|  X4
D--5-----5----5---------3--3-----3-----|
A--------------------------------------|
D--------------------------------------|

chorus

E------------------------------------------------------------------|
B------------------------------------------------------------------|
G-----3----3----3/2--2-------2------- -----------------------------|
D--5-----5----5---------3--3--------- -5--5--5-5-5--1--1--1-1-1-1--|
A------------------------------------ - 5--5--5-5-5--1--1--1-1-1-1-|
D-------------------------------------  5--5--5-5-5--1--1--1-1-1-1-|

E------------------------------------------------------------------------------------|
B------------------------------------------------------------------------------------|
G---------------------------------------------------------------3---3---3/2-2-----2--|
D--3--1--0--1---5-5--5-5-5--1--1-1-1-1-1--3--1--0--1---------5---5---5------3-3------|
A--3--1--0--1---5-5--5-5-5--1--1-1-1-1-1--3--1--0--1---------------------------------|
D--3--1--0--1---5-5--5-5-5--1--1-1-1-1-1--3--1--0--1---------------------------------|


Verse 2

E------------------------------------------------------------|
B------------------------------------------------------------|
G------------------------------------------------------------|
D -5-5-5-5-5-5-5-5-5---3-3--3-3--5-5-5-5-5-5-5-5-5---3-3-----|
A -5-5-5-5-5-5-5-5-5---3-3--3-3--5-5-5-5-5-5-5-5-5---3-3-----|
D -5-5-5-5-5-5-5-5-5---3-3--3-3--5-5-5-5-5-5-5-5-5---3-3-----|

E -----------------------------------------------------------------------------------|
B -----------------------------------------------------------------------------------|
G-3-2-0-------------------------------------------------------8-7----7---------------|
D -------3--5-5-5-5-5-5-5-5-5--7-7--7-7---8-8-8-8-8-8-8-8-8-----10--10-8-10----------|
D -----------------------------------------------------------------------------------|
A -----------------------------------------------------------------------------------|
D -----------------------------------------------------------------------------------|


E--------------------------------------|
B--------------------------------------|
G-----3----3----3/2--2-------2---------|  X4
D--5-----5----5---------3--3-----3-----|
A--------------------------------------|
D--------------------------------------|

Chorus:

E------------------------------------------------------------------|
B------------------------------------------------------------------|
G-----3----3----3/2--2-------2------- -----------------------------|
D--5-----5----5---------3--3--------- -5--5--5-5-5--1--1--1-1-1-1--|
A------------------------------------ - 5--5--5-5-5--1--1--1-1-1-1-|
D-------------------------------------  5--5--5-5-5--1--1--1-1-1-1-|

E------------------------------------------------------------------------------------|
B------------------------------------------------------------------------------------|
G---------------------------------------------------------------3---3---3/2-2-----2--|
D--3--1--0--1---5-5--5-5-5--1--1-1-1-1-1--3--1--0--1---------5---5---5------3-3------|
A--3--1--0--1---5-5--5-5-5--1--1-1-1-1-1--3--1--0--1---------------------------------|
D--3--1--0--1---5-5--5-5-5--1--1-1-1-1-1--3--1--0--1---------------------------------|

Bridge

E ---------------------------------------------|
B ---------------------------------------------|
G ---------------------------------------------|
D ---5-----------------------------------------|
A ---5-----------------------------------------|
D ---5-----------------------------------------|
        ^ 32 notes (listen to song for exact rythem and length)

Chorus:


E------------------------------------------------------------------|
B------------------------------------------------------------------|
G-----3----3----3/2--2-------2------- -----------------------------|
D--5-----5----5---------3--3--------- -5--5--5-5-5--1--1--1-1-1-1--|
A------------------------------------ - 5--5--5-5-5--1--1--1-1-1-1-|
D-------------------------------------  5--5--5-5-5--1--1--1-1-1-1-|

E------------------------------------------------------------------------------------|
B------------------------------------------------------------------------------------|
G------------------------------------------------------------------------------------|
D--3--1--0--1---5-5--5-5-5--1--1-1-1-1-1--3--1--0--1---5-----------------------------|
A--3--1--0--1---5-5--5-5-5--1--1-1-1-1-1--3--1--0--1---5-----------------------------|
D--3--1--0--1---5-5--5-5-5--1--1-1-1-1-1--3--1--0--1---5-----------------------------|


And thats it. Eassy, yet Catchy song.
Tap to rate this tab
# A B C D E F G H I J K L M N O P Q R S T U V W X Y Z