Song name
# A B C D E F G H I J K L M N O P Q R S T U V W X Y Z

Misc Unsigned Bands - Journey To The Center Of The Sun - Triangles tab

Triangles
By Journey to the Center of the Sun (http://www.myspace.com/centerofthesun)
Tabbed by Van Anderson (ninepointeightone@gmail.com)
Tabbed from live shows as well as listening to the Mirros EP.

CAPO V

The basic structure of the song is:

intro (x1)
[a]x3 [b]

verse (x3)
[a]x3 [c]

chorus(x2)
[b] [d] [a]


the bridge thing is pretty much the same as the chorus.


[a] NOTE: when the is played in the chorus, you also play a (54030) right after the G.

   C   C  G

---0---0--3----|
---1---1--3----|
---0---0--0----|
---0h2-2--0----|
---3---3--2----|
----------3----|

[b] NOTE: When this is played in the chorus, you play an Em-(022030) instead of a Dadd2add4.

   G    G/F#  Dadd2add4

-----3----3----0-----|
-----3----3----3-----|
-----0----0----0-----|
-----0----0----4-----|
---------------5-----|
---3---2-----0-------|

[c]

   C   C  Dadd2add4

---0---0--0----|
---1---1--3----|
---0---0--0----|
---0h2-2--4----|
---3---3--5----|
---------------|

[d]

   C   C/B    Am

----0---0-----0----|
----1---1-----1----|
----0---0-----2----|
----2---0-----2----|
--3-3---2---0-0----|
-------------------|

[e]

   C   C  G  Dadd2add4

---0---0--3--0--|
---1---1--3--3--|
---0---0--0--0--|
---0h2-2--0--4--|
---3---3--2--5--|
----------3-----|
Tap to rate this tab
# A B C D E F G H I J K L M N O P Q R S T U V W X Y Z