Song name
# A B C D E F G H I J K L M N O P Q R S T U V W X Y Z

Misc Unsigned Bands - Journey To The Center Of The Sun - Remember When I Had That Dream tab

Remember When I had that Dream?
By Journey to the Center of the Sun
Tabbed by Van Anderson (ninepointeightone@gmail.com)
Tabbed from live shows and the Mirrors EP

CAPO V


the verse is basically this the entire time:

     G         D          Am         C

-------------------------------------------------------|
-----3----------3----------1----------1----------------|
-----0----------2----------2----------0----------------|
--------(x8)--0----(x8)-------(x8)------(x8)-----------|
-------------------------0----------3------------------|
---3---------------------------------------------------|

NOTE:
In the Mirros EP and sometime live, instead of
using D-xx023x, he uses Dadd2add4-x54030:

-------|
----3--|
----0--|
-------|
--5----|
-------|

This substitution (x54030 instead of xx0323)
is made quite a bit in a number of songs he plays.


"OooooOooo, whats going on?"

--------------------------------------------|
-----3---3----3---3---3---3---3---3-----3---|
-----0---0----0---0---0---0---0---0-----0---|
--------------------------------------------| (x3x03x) is (x8)
--------------------------------------3-----|
---0---0----2---2---3---3---3---3-----------|

Ending is just the verse chords strummed:

G D A C

NOTE:
In the verse, there is quite a bit of variation thrown in, especialy with
hammer ons. The fills and hammer ons are not to hard to figure out, just
listen to the mirrors EP, or if your lucky enough see him live :D.


Happy playing!
Tap to rate this tab
# A B C D E F G H I J K L M N O P Q R S T U V W X Y Z