Song name
# A B C D E F G H I J K L M N O P Q R S T U V W X Y Z

Misc Unsigned Bands - Journey To The Center Of The Sun - 8 Hours tab

8 Hours
By Journey to the Center of the Sun (http://www.myspace.com/centerofthesun)
Tabbed by Van Anderson (ninepointeightone@gmail.com)
Tabbed mostly from the songolation downloadable.

The entire song is 4 chords:

   Em   C   G   D

----3---0---3---2--|
----0---1---3---3--|
----0---0---0---2--|
----2---2---0---0--|
----2---3---2------|
----0-------3------|

As in other songs, the D if often
replaced by Dadd4add2 (x54030).

Make sure to throw in variation and hammerons, most notably these in the intro:

----3---------0-------3-------2h3p2--|
----0---------1----1--3-------3------|
----0---------0-------0-------2------|
----2------0--2-0h2---0-----0-0------|
----2--0h2----3-------2-0h2----------|
----0-----------------3--------------|

He almost always uses his Line6 DL4 Delay Modeler (Named "Plato")
at live shows to build an elaborate loop of chords and harmonies,
but the song still followsthe 4 chords.

have fun!
Tap to rate this tab
 
# A B C D E F G H I J K L M N O P Q R S T U V W X Y Z