Song name
# A B C D E F G H I J K L M N O P Q R S T U V W X Y Z

Misc Unsigned Bands - Journey To The Center Of The Sun - Tombstone tab

Tombstone
By Journey to the Center of the Sun (http://www.myspace.com/centerofthesun)
Tabbed by Van Anderson (ninepointeightone@gmail.com)
Tabbed from mostly from the downloadable songolation.


Verse:

-0-----0----0---0--0-|
-5-----0----0---0--4-|
-6-----4----1---4--x-|
-6-----7----2---4--4-|
-4-----7----2---2--2-|
----(4)5----0--------|

Note: The (x24x40) is the same chords as (799800).
I don't know which he uses since I've never seen
him play this live, but either one will do. I think
(x46650) is also sometimes played (x46600).

Chorus:

Basicaly the same as the verse except the first two
chords switch places.

---0--0---0---0--0-|
---0--5---0---0--4-|
---4--6---1---4--x-|
---7--6---2---4--4-|
---7--4---2---2--2-|
---5------0--------|


Peaaace!
Tap to rate this tab
# A B C D E F G H I J K L M N O P Q R S T U V W X Y Z