Song name
# A B C D E F G H I J K L M N O P Q R S T U V W X Y Z

Misc Unsigned Bands - Brainless - Have Sex To This Song tab

Help us improve GuitareTab! Take a short survey!
This is a song by Brainless, a young RocknRoll-Band from Flensburg in Germany. It's real 
but kickin ass!

Intro: 4x

e|--------------------------------------------|
B|--------------------------------------------|
G|-----------8-8-8---------10-10-10-10-10-8-8-|
D|-10-10-10--8-8-8--8-8-8--10-10-10-10-10-8-8-|
A|-10-10-10--6-6-6--8-8-8--8--8--8--8--8--6-6-|
E|-8--8--8----------6-6-6---------------------|

Verse: 4x

e|---------------------------------------------------------------------|
B|---------------------------------------------------------------------|
G|------------------------------------8-8-8---------10-10-10-10-10-8-8-|
D|-10-----------------------10-10-10--8-8-8--8-8-8--10-10-10-10-10-8-8-|
A|-10-----------------------10-10-10--6-6-6--8-8-8--8--8--8--8--8--6-6-|
E|-8------------------------8--8--8----------6-6-6---------------------|

Chorus: 4x

e|--------------------------------------------|
B|--------------------------------------------|
G|-----------8-8-8---------10-10-10-10-10-8-8-|
D|-10-10-10--8-8-8--8-8-8--10-10-10-10-10-8-8-|
A|-10-10-10--6-6-6--8-8-8--8--8--8--8--8--6-6-|
E|-8--8--8----------6-6-6---------------------|

Verse
Chorus 2x

That's about the whole song, hope you enjoy plaing it!
Related for Brainless - Have Sex To This Song tab