Song name
# A B C D E F G H I J K L M N O P Q R S T U V W X Y Z

Misc Unsigned Bands - Living Contradiction - New Ending tab

----------------------------------------------------------------------------
			     New Ending - Living Contradiction
----------------------------------------------------------------------------
Tabbed by: Justin Makowski	
Email: jcmakowski@gmail.com

Tuning: Standard

the riff is to be played as 32nd notes and is much easier to play on piano
The Chords played over each part of the riff are Cm-G-Bb-F

E|-------------------------------------------------------------------------|
B|-------------------------------------------------------------------------|
G|-----------0--------1-------0--------------------------------------------|
D|----1-0-1----1-0-1----1-01----1-0-1--------------------------------------|
A|--3----------------------------------------------------------------------|
E|-------------------------------------------------------------------------|

E|-------------------------------------------------------------------------|
B|-------------------------------------------------------------------------|
G|-----------0--------1-------0--------------------------------------------|
D|----1-0-1----1-0-1----1-01----1-0-1--------------------------------------|
A|--2----------------------------------------------------------------------|
E|-------------------------------------------------------------------------|

E|-------------------------------------------------------------------------|
B|-------------------------------------------------------------------------|
G|-----------0--------1-------0--------------------------------------------|
D|----1-0-1----1-0-1----1-01----1-0-1--------------------------------------|
A|--1----------------------------------------------------------------------|
E|-------------------------------------------------------------------------|

E|-------------------------------------------------------------------------|
B|-------------------------------------------------------------------------|
G|-----------0-------------------------------------------------------------|
D|----1-0-1----1-0-1-3-1-0-1-3-1-------------------------------------------|
A|--0----------------------------0-----------------------------------------|
E|-------------------------------------------------------------------------|

This is my first tab tell me what you think jcmakowski@gmail.com 
God Bless!
Tap to rate this tab
# A B C D E F G H I J K L M N O P Q R S T U V W X Y Z