Song name
# A B C D E F G H I J K L M N O P Q R S T U V W X Y Z

Misc Unsigned Bands - The Crystal Lake Masacre - Feel Fate tab

Help us improve GuitareTab! Take a short survey!
Feel Me Fall Feel Me Break, Feel Me Fall Into My Worthless Fate
Feel Me Fall Feel Me Break, Feel Me Fall Into My Worthless Fate
Feel Me Fall Feel Me Break, Feel Me Fall Into My Worthless Fate
RIFF 1    x2
E----------------------------------------------|
B----------------------------------------------|
G----------------------------------------------|
D----------------------------------------------|
A---13-13--13-13---13-13--13-13--9--11---------|
D---13-13--13-13---13-13--13-13--9--11---------|

VERSE (palm-muted)  x2
E---------------------------------------------------|
B---------------------------------------------------|
G---------------------------------------------------|
D---------------------------------------------------|
A--13-13-13-13-13-13-13-13-13-13-9-9-9-11-11-11-----|
D--13-13-13-13-13-13-13-13-13-13-9-9-9-11-11-11-----|

E---------------------------------------------------|
B---------------------------------------------------|
G---------------------------------------------------|
D---------------------------------------------------|
A--13-13-13-13-13-13-13-13-13-13-16-16-16-15-15-15--|
D--13-13-13-13-13-13-13-13-13-13-16-16-16-15-15-15--|

E---------------------------------------------------|
B---------------------------------------------------|
G---------------------------------------------------|
D---------------------------------------------------|
A--13-13-13-13-13-13-13-13-13-13-9-9-9-11-11-11-----|
D--13-13-13-13-13-13-13-13-13-13-9-9-9-11-11-11-----|

(Normal)
E---------------------------------------------------|
B---------------------------------------------------|
G---------------------------------------------------|
D---------------------------------------------------|
A--13-13-13---13-13-13---13-------------------------|
D--13-13-13---13-13-13---13-------------------------|

CHORUS   x4
E---------------------------------------------------|
B---------------------------------------------------|
G---------------------------------------------------|
D---------------------------------------------------|
A--13--13--13-13-9--9--9-9-4--4--4-4-6--6-6-6-6-----|
D--13--13--13-13-9--9--9-9-4--4--4-4-6--6-6-6-6-----|

RIFF 1   x2

VERSE

CHORUS   x4

SOLO
E---------------------------------------------------|
B---------------------------------------------------|
G---------------------------------------------------|
D----------8--6----6----------------8--6-----6------|
A--1-1-1---------7---7-6----1-1-1---------7---------|  x2
D--1-1-1--------------------1-1-1-------------------|


RIFF 2
(Softly)
E---------------------------------------------------|
B---------------------------------------------------|
G---------------------------------------------------|
D---------------------------------------------------|
A---------------------------------------------------|  x4
D--13-13-13-9-9-9-13-13-13-9-9-9--9-9-11-11---------|

(Very loud)
E---------------------------------------------------|
B---------------------------------------------------|
G---------------------------------------------------|
D---------------------------------------------------|
A--13-13-13-9-9-9-13-13-13-9-9-9--9-9-11-11---------|  x3
D--13-13-13-9-9-9-13-13-13-9-9-9--9-9-11-11---------|

E---------------------------------------------------|
B---------------------------------------------------|
G---------------------------------------------------|
D---------------------------------------------------|
A--13-13-13-9----13-13-13-9-------------------------|  x3
D--13-13-13-9----13-13-13-9-------------------------|

CHORUS  x4

RIFF 3
E----------------------------------------------|
B----------------------------------------------|
G----------------------------------------------|
D----------------------------------------------|
A---13-13--13-13---13-13--13-13--14--11--------|
D---13-13--13-13---13-13--13-13--14--11--------|

E----------------------------------------------|
B----------------------------------------------|
G----------------------------------------------|
D----------------------------------------------|
A---13-13--13-13---13-13--13-13--9--11---------|
D---13-13--13-13---13-13--13-13--9--11---------|

E----------------------------------------------|
B----------------------------------------------|
G----------------------------------------------|
D----------------------------------------------|
A---13-13--13-13---13-13--13-13--14--11--------|
D---13-13--13-13---13-13--13-13--14--11--------|

E----------------------------------------------|
B----------------------------------------------|
G----------------------------------------------|
D----------------------------------------------|
A--13-13-13--13-13-13--13-13-13--13-13-13---9--|
D--13-13-13--13-13-13--13-13-13--13-13-13---9--|

Lyrics...

feel me fall, Feel Me Break, Feel me fall into my worthless fate


(verse 1)
It's all about my pain, the think its the best, you think its all sick distress,
Feel me fall fell me break, Feel me fall until i fucking Break!


(Chours) Break..Here comes my fate
Break..Here comes my fate
Break..Here comes my fate
Break..Here Comes My FATE!!!!
Time to feel my fate..Break


(Verse 2)
It's all about my pain, It's like my own death
My failure is his succsess, Its all about my fall
will i make it?
I HOPE I FALL, BREAK IT AND DON'T FAKE IT!!
(Chours) Break..Here comes my fate
Break..Here comes my fate
Break..Here comes my fate
Break..Here Comes My FATE!!!!


(solo)
(Chours)
Break..Here comes my fate
Break..Here comes my fate
Break..Here comes my fate
Break..Here Comes My FATE!!!!
Time to feel my fate..Break
==============================================================
Well Thats it..if your gonna complain on how bad it is then dont e-mail me
nut incase you did like it heres my e-mail:

RiDe_DiS-BiKe_22@yahoo.com

Enjoy!!!
Related for The Crystal Lake Masacre - Feel Fate tab