Song name
# A B C D E F G H I J K L M N O P Q R S T U V W X Y Z

Misc Unsigned Bands - Australian Ant Farm - Peel And Seel tab

   4/4
   


 Gtrs I, II

Intro
||------------------------------------------------------------||----|
||o----------------------------------------------------------o||----|
||--------0-----------------------------0-----------0-----0---||----|
||------4---4---4-----0-----0---------4---4---4---7-----5-----||----|
||o---2-------2-----2-----4---4-----2-------2---5-----3------o||----|
||--0-------------3-----5-------5-0---------------------------||----|

Verse

||--0-0-0-0-0--3-3-3-------0-0-0-0-0--------3-3--||----|
||o-0-0-0-0-0--3-3-3-2-2---0-0-0-0-0--2-2-2-3-3-o||----|
||--1-1-1-1-1--0-0-0-2-2---1-1-1-1-1--2-2-2-0-0--||----|
||--2-2-2-2-2--0-0-0-2-2---2-2-2-2-2--2-2-2-0-0--||----|
||o-2-2-2-2-2--2-2-2-0-0---2-2-2-2-2--0-0-0-2-2-o||----|
||--0-0-0-0-0--3-3-3-------0-0-0-0-0--------3-3--||----|

Chorus
                          3x
||--0--0--2-2--0----------||-0--0--2-2-------|----|
||o-1--1--3-3--0---------o||-1--1--3-3-------|----|
||--0--0--2-2--1----------||-0--0--2-2--1----|----|
||--2--2--0-0--2----------||-2--2--0-0--2----|----|
||o-3--3-------2---------o||-3--3-------2----|----|
||-------------0----------||------------0----|----|

Verse 2

||--0--0--0-0-0--|-3--3--3------|-0--0--0-0-0--|---------3-3--||
||o-0--0--0-0-0--|-3--3--3-2-2--|-0--0--0-0-0--|-2--2--2-3-3-o||
||--1--1--1-1-1--|-0--0--0-2-2--|-1--1--1-1-1--|-2--2--2-0-0--||
||--2--2--2-2-2--|-0--0--0-2-2--|-2--2--2-2-2--|-2--2--2-0-0--||
||o-2--2--2-2-2--|-2--2--2-0-0--|-2--2--2-2-2--|-0--0--0-2-2-o||
||--0--0--0-0-0--|-3--3--3------|-0--0--0-0-0--|---------3-3--||

Outro
                   4x
||--0--0--2-2--0---||----|
||o-1--1--3-3--0--o||----|
||--0--0--2-2--1---||----|
||--2--2--0-0--2---||----|
||o-3--3-------2--o||----|
||-------------0---||----|


Tap to rate this tab
# A B C D E F G H I J K L M N O P Q R S T U V W X Y Z