Song name
# A B C D E F G H I J K L M N O P Q R S T U V W X Y Z

Misc Unsigned Bands - Australian Ant Farm - The Fall Of Ytsirk tab

    Q=80
   4/4
    Gtr I
                                     6x
||--4---------5---7------------------||----|
||o-5---------5---7-----------------o||----|
||--6---------6---8------------------||----|
||--6---------7---9------------------||----|
||o-4---------7---9-----------------o||----|
||------------5---7------------------||----|
|
|   Gtr II
|                                    6x
||--4-4-4-4-5-5-7-7------------------||----|
||o-5-5-5-5-5-5-7-7-----------------o||----|
||--6-6-6-6-6-6-8-8------------------||----|
||--6-6-6-6-7-7-9-9------------------||----|
||o-4-4-4-4-7-7-9-9-----------------o||----|
||----------5-5-7-7------------------||----|
|
|   Gtr III
|                                    6x
||----------4------------------------||----|
||o-------5---5---------------------o||----|
||------6-------6---------6-------8--||----|
||----6-----------6-----7-------9----||----|
||o-4-----------------7-------9-----o||----|
||------------------5-------7--------||----|


Tap to rate this tab
# A B C D E F G H I J K L M N O P Q R S T U V W X Y Z