Song name
# A B C D E F G H I J K L M N O P Q R S T U V W X Y Z

Misc Unsigned Bands - End Of Days - Prison Of The Damned tab

Help us improve GuitareTab! Take a short survey!
this is my band..... enjoy
*=palm mute
#=vibrato pinch harmonic
-/= slide from high to low

Enter the prison
Walk in on dirt
--------------------------------------------------------|
--------------------------------------------------------|
--------------------------------------------------------|
--------------------------------------------------------| *4
--0-0-0-3-0-0----5-0-3-4--------------------------------|
--0-0-0-3-0-0--------#-#--------------------------------|
  * * * * * *

Hurting all over
Burning in blight
--------------------------------------------------------|
--------------------------------------------------------|
--------------------------------------------------------|
--------------------------------------------------------| *2
--0-0-0-3-0-0----7-0-5-6--------------------------------|
--0-0-0-3-0-0--------#-#--------------------------------|
  * * * * * *

                                Forget old nightmares
                                Bleeding wont bring us back
                                Alchemy is a myth
                                Were stuck in this hell

--------------------------------------------------------|
--------------------------------------------------------|
--------------------------------------------------------|
--------------------------------------------------------| *4
--0-0-0-0-0-0-3-3-3-3-3-3-5-5-5-5-5-5-4-4-4-4-4-4-------|
--0-0-0-0-0-0-3-3-3-3-3-3-5-5-5-5-5-5-4-4-4-4-4-4-------|
    * *   * *   * *   * *   * *   * *   * *   * *


Fall in flames
Burn in heat
There may be a way
Follow your Heart
--------------------------------------------------------|
--------------------------------------------------------|
--------------------------------------------------------|
--------------------------------------------------------| *4
--0-0-0-3-0-0----5-0-3-4--------------------------------|
--0-0-0-3-0-0--------#-#--------------------------------|
  * * * * * *


If you find the way
Exit the prison
--------------------------------------------------------|
--------------------------------------------------------|
--------------------------------------------------------|
--------------------------------------------------------| *2
--0-0-0-3-0-0----7-0-5-6--------------------------------|
--0-0-0-3-0-0--------#-#--------------------------------|
  * * * * * *
Related for End Of Days - Prison Of The Damned tab