Song name
# A B C D E F G H I J K L M N O P Q R S T U V W X Y Z

Misc Unsigned Bands - Sorry Were Closed - The Character tab

Sorry We're Closed
The Character
Tabbed by : Griever
Tuning : EADGBe

Intro
Distortion
e|---------------------------------| |-------------------------------|
B|---------------------------------| |-------------------------------|
G|---------------------------------| |-------------------------------|
D|-4-4-4-4-4-4-4-4-4-4-4-4-4-4-4-4-| |-4-4-4-4-4-4-4-4-4-4-4-4-4-4-4-|
A|-2-x-x-2-x-x-2-x-x-2-x-x-2-x-2-x-| |-0-0-0-0-0-0-0-0-0-0-0-0-0-0-0-|
E|---------------------------------| |-------------------------------|

e|---------------------------------| |-------------------------------|
B|---------------------------------| |-------------------------------|
G|---------------------------------| |-------------------------------|
D|-4-4-4-4-4-4-4-4-4-4-4-4-4-4-4-4-| |-4-4-4-4-4-4-4-4-4-4-4-4-4-4-4-|
A|-x-x-x-x-x-x-x-x-x-x-x-x-x-x-x-x-| |-x-x-x-x-x-x-x-x-x-x-x-x-x-x-x-|
E|-3-x-x-3-x-x-3-x-x-3-x-x-3-x-3-x-| |-0-0-0-0-0-0-0-0-0-0-0-0-0-0-0-|

e|---------------------------------| |-------------------------------|
B|---------------------------------| |-------------------------------|
G|---------------------------------| |-------------------------------|
D|-4-4-4-4-4-4-4-4-4-4-4-4-4-4-4-4-| |-4-4-4-4-4-4-4-4-4-4-4-4-4-4-4-|
A|-2-x-x-2-x-x-2-x-x-2-x-x-2-x-2-x-| |-0-0-0-0-0-0-0-0-0-0-0-0-0-0-0-|
E|---------------------------------| |-------------------------------|

e|-------------------| |---------------| |-------------------| |----|
B|-------------------| |---------------| |-------------------| |----|
G|-------------------| |---------------| |-------------------| |----|
D|-4-4-4-4-4-4-4-4-4-| |x-x-x-x-x-x-x-x| |-4-4-4-4-4-4-4-4-4-| |----|
A|-x-x-x-x-x-x-x-x-x-| |x-x-x-x-x-x-x-x| |-x-x-x-x-x-x-x-x-x-| |-5/-|
E|-3-x-x-3-x-x-3-3-3-| |x-x-x-x-x-x-x-x| |-0-x-x-0-x-x-0-0-0-| |-3/-|


Bridge/Verse
Distortion
e|--------------------------------------------|
B|--------------------------------------------|
G|--------------------------------------------|
D|--------------------------------------------|  x2
A|-11-x2-12-x2-9-x2-11-x2-12-x2-9-x2-11-x2-12-|
E|--9-----9----9-----9-----9----9-----9-----9-|

e|---------------------------------------|
B|---------------------------------------|
G|---------------------------------------|
D|---------------------------------------|
A|-44444444-66666666-7777777-9-9-9-6-6-6-|
E|-22222222-22222222-0000000-7-7-7-7-7-7-|

Verse
Distortion
e|-------------|    |-------------|    |------------|    |------------|
B|-------------|    |-------------|    |------------|    |------------|
G|-------------|    |-------------|    |------------|    |------------|
D|-------------| x3 |-------------| x3 |------------| x3 |------------| x3
A|-11-x-x-x-x--|    |-11-x-x-x-x--|    |-9-x-x-x-x--|    |-7-x-x-x-x--|
E|--9-x-x-x-x--|    |-12-x-x-x-x--|    |-7-x-x-x-x--|    |-5-x-x-x-x--|

Bridge/Verse
Distortion
e|--------------------------------------------|
B|--------------------------------------------|
G|--------------------------------------------|
D|--------------------------------------------|  x2
A|-11-x2-12-x2-9-x2-11-x2-12-x2-9-x2-11-x2-12-|
E|--9-----9----9-----9-----9----9-----9-----9-|

e|---------------------------------------|
B|---------------------------------------|
G|---------------------------------------|
D|---------------------------------------|
A|-44444444-66666666-7777777-9-9-9-6-6-6-|
E|-22222222-22222222-0000000-7-7-7-7-7-7-|

Outro
Distortion
e|---------------------------------||---------------------------------|
B|---------------------------------||---------------------------------|
G|---------------------------------||---------------------------------|
D|-----4-------4-------4-------4---||-----4-------4-------4-------4---|
A|-----4-------4-------4-------4---||-----4-------4-------4-------4---|
E|-2-2---2-2-2---2-2-2---2-2-2---2-||-0-0---0-0-0---0-0-0---0-0-0---0-|
   . . . . . . . . . . . . . . . .    . . . . . . . . . . . . . . . .

e|---------------------------------||---------------------------------|
B|---------------------------------||---------------------------------|
G|---------------------------------||---------------------------------|
D|-----4-------4-------4-------4---||-----4-------4-------4-------4---|
A|-----4-------4-------4-------4---||-----4-------4-------4-------4---|
E|-5-5---5-5-5---5-5-5---5-5-5---5-||-3-3---3-3-3---3-3-3---3-3-3---3-|
   . . . . . . . . . . . . . . . .    . . . . . . . . . . . . . . . .

e|---------------------------------||---------------------------------|
B|---------------------------------||---------------------------------|
G|---------------------------------||---------------------------------|
D|-----4-------4-------4-------4---||-----4-------4-------4-------4---|
A|-----4-------4-------4-------4---||-----4-------4-------4-------4---|
E|-2-2---2-2-2---2-2-2---2-2-2---2-||-0-0---0-0-0---0-0-0---0-0-0---0-|
   . . . . . . . . . . . . . . . .    . . . . . . . . . . . . . . . .

e|---------------------------------||---------------------------------|
B|---------------------------------||---------------------------------|
G|---------------------------------||---------------------------------|
D|-----4-------4-------4-------4---||-----4-------4-------4-------4---|
A|-----4-------4-------4-------4---||-----4-------4-------4-------4---|
E|-5-5---5-5-5---5-5-5---5-5-5---5-||-3-3---3-3-3---3-3-3---3-3-3---3-|
   . . . . . . . . . . . . . . . .    . . . . . . . . . . . . . . . .

The rest is done by strumming without the palm-muting. Hope it sounds alright. You guys 
fun with this song, later.
Tap to rate this tab
# A B C D E F G H I J K L M N O P Q R S T U V W X Y Z