Song name
# A B C D E F G H I J K L M N O P Q R S T U V W X Y Z

Misc Unsigned Bands - Slushie - A Place In The Sun tab

This is a new band from Mount Airy, North Carolina and I thought I would go ahead and 
out one of their songs from the promo disc they gave out on tour.
                                  SLUSHIE
                             A Place in the Sun
                                 Promo Disc
                            www.slushietheband.com
Intro
e|----------------------------------| x4
B|----------------------------------|
G|----------------------------------|
D|4-4-4-4-4-2-2///9~-9-9-9-9\\\7-7-7|
A|4-4-4-4-4-2-2///9~-9-9-9-9\\\7-7-7|
E|2-2-2-2-2-0-0///7~-7-7-7-7\\\5-5-5|

Verse
e|-------------------------------|___
B|-------------------------------|   |
G|-------------------------------|   |
D|-------------------------------|   |
A|4-4-4-4-4-4-4-4-2-2-2-2-2-2-2-2|   |
E|2-2-2-2-2-2-2-2-0-0-0-0-0-0-0-0|   |
  * * * * * * * * * * * * * * * *    |
                                     |---x2
e|-------------------------------|   |
B|-------------------------------|   |
G|-------------------------------|   |
D|-------------------------------|   |
A|9-9-9-9-9-9-9-9-7-7-7-7-7-7-7-7|   |
E|7-7-7-7-7-7-7-7-5-5-5-5-5-5-5-5|___|
  * * * * * * * * * * * * * * * *
Prechorus
e|------------------------------|
B|------------------------------|
G|7-7-7-7-7-7-9-9-9-9-9-9-9-9-9-|
D|7-7-7-7-7-7-9-9-9-9-9-9-9-9-9-|
A|5-5-5-5-5-5-7-7-7-7-7-7-7-7-7-|
E|------------------------------|

e|----------------------------------|
B|----------------------------------|
G|----------------------------------|
D|4-4-4-4-4-2-2///9~-9-9-9-9\\\7-7-7|
A|4-4-4-4-4-2-2///9~-9-9-9-9\\\7-7-7|
E|2-2-2-2-2-0-0///7~-7-7-7-7\\\5-5-5|

e|--------------------------------|
B|--------------------------------|
G|7~-7-7-7-7-7-9~-9-9-9-9-9-9-9-9-|
D|7~-7-7-7-7-7-9~-9-9-9-9-9-9-9-9-|
A|5~-5-5-5-5-5-7~-7-7-7-7-7-7-7-7-|
E|--------------------------------|

Bridge
e|----------------------------------|x2
B|----------------------------------|
G|----------------------------------|
D|4-4-4-4-4-2-2///9~-9-9-9-9\\\7-7-7|
A|4-4-4-4-4-2-2///9~-9-9-9-9\\\7-7-7|
E|2-2-2-2-2-0-0///7~-7-7-7-7\\\5-5-5|

Verse
e|------------------------------ |___
B|-------------------------------|   |
G|-------------------------------|   |
D|-------------------------------|   |
A|4-4-4-4-4-4-4-4-2-2-2-2-2-2-2-2|   |
E|2-2-2-2-2-2-2-2-0-0-0-0-0-0-0-0|   |
  * * * * * * * * * * * * * * * *    |
                                     |---x2
e|-------------------------------|   |
B|-------------------------------|   |
G|-------------------------------|   |
D|-------------------------------|   |
A|9-9-9-9-9-9-9-9-7-7-7-7-7-7-7-7|   |
E|7-7-7-7-7-7-7-7-5-5-5-5-5-5-5-5|___|
  * * * * * * * * * * * * * * * *

Prechorus
e|--------------------------------|
B|--------------------------------|
G|7~-7-7-7-7-7-9~-9-9-9-9-9-9-9-9-|
D|7~-7-7-7-7-7-9~-9-9-9-9-9-9-9-9-|
A|5~-5-5-5-5-5-7~-7-7-7-7-7-7-7-7-|
E|--------------------------------|

e|----------------------------------|
B|----------------------------------|
G|----------------------------------|
D|4-4-4-4-4-2-2///9~-9-9-9-9\\\7-7-7|
A|4-4-4-4-4-2-2///9~-9-9-9-9\\\7-7-7|
E|2-2-2-2-2-0-0///7~-7-7-7-7\\\5-5-5|

e|--------------------------------|
B|--------------------------------|
G|7~-7-7-7-7-7-9~-9-9-9-9-9-9-9-9-|
D|7~-7-7-7-7-7-9~-9-9-9-9-9-9-9-9-|
A|5~-5-5-5-5-5-7~-7-7-7-7-7-7-7-7-|
E|--------------------------------|

Chorus
e|-------------------------------|
B|-------------------------------|
G|-------------------------------|
D|7-7-7-7-6-6-6-6-4-4-4-4-2-2-2-2|
A|7-7-7-7-6-6-6-6-4-4-4-4-2-2-2-2|
E|5-5-5-5-4-4-4-4-2-2-2-2-0-0-0-0|

e|--------------------------------|
B|--------------------------------|
G|7~-7-7-7-7-7-9~-9-9-9-9-9-9-9-9-|
D|7~-7-7-7-7-7-9~-9-9-9-9-9-9-9-9-|
A|5~-5-5-5-5-5-7~-7-7-7-7-7-7-7-7-|
E|--------------------------------|

Bridge
e|----------------------------------|
B|----------------------------------|
G|----------------------------------|
D|4-4-4-4-4-2-2///9~-9-9-9-9\\\7-7-7|
A|4-4-4-4-4-2-2///9~-9-9-9-9\\\7-7-7|
E|2-2-2-2-2-0-0///7~-7-7-7-7\\\5-5-5|

I'm still working on the Solo, I will update it in later.

Prechorus
e|--------------------------------|
B|--------------------------------|
G|7~-7-7-7-7-7-9~-9-9-9-9-9-9-9-9-|
D|7~-7-7-7-7-7-9~-9-9-9-9-9-9-9-9-|
A|5~-5-5-5-5-5-7~-7-7-7-7-7-7-7-7-|
E|--------------------------------|

e|----------------------------------|
B|----------------------------------|
G|----------------------------------|
D|4-4-4-4-4-2-2///9~-9-9-9-9\\\7-7-7|
A|4-4-4-4-4-2-2///9~-9-9-9-9\\\7-7-7|
E|2-2-2-2-2-0-0///7~-7-7-7-7\\\5-5-5|

e|--------------------------------|
B|--------------------------------|
G|7~-7-7-7-7-7-9~-9-9-9-9-9-9-9-9-|
D|7~-7-7-7-7-7-9~-9-9-9-9-9-9-9-9-|
A|5~-5-5-5-5-5-7~-7-7-7-7-7-7-7-7-|
E|--------------------------------|

Chorus
e|-------------------------------|
B|-------------------------------|
G|-------------------------------|
D|7-7-7-7-6-6-6-6-4-4-4-4-2-2-2-2|
A|7-7-7-7-6-6-6-6-4-4-4-4-2-2-2-2|
E|5-5-5-5-4-4-4-4-2-2-2-2-0-0-0-0|

e|--------------------------------|
B|--------------------------------|
G|7~-7-7-7-7-7-9~-9-9-9-9-9-9-9-9-|
D|7~-7-7-7-7-7-9~-9-9-9-9-9-9-9-9-|
A|5~-5-5-5-5-5-7~-7-7-7-7-7-7-7-7-|
E|--------------------------------|

Outro
e|----------------------------------|x4
B|----------------------------------|
G|----------------------------------|
D|4-4-4-4-4-2-2///9~-9-9-9-9\\\7-7-7|
A|4-4-4-4-4-2-2///9~-9-9-9-9\\\7-7-7|
E|2-2-2-2-2-0-0///7~-7-7-7-7\\\5-5-5|

e|----------------------------------|
B|----------------------------------|
G|----------------------11\\\-------|
D|4~~~~~~~~~~~~~~~~~~---11\\\-------|
A|4~~~~~~~~~~~~~~~~~~----9\\\-------|
E|2~~~~~~~~~~~~~~~~~~---------------|

Check out Slushie and more at http://www.slushietheband.com/
Tap to rate this tab
 
# A B C D E F G H I J K L M N O P Q R S T U V W X Y Z