Song name
# A B C D E F G H I J K L M N O P Q R S T U V W X Y Z

Misc Unsigned Bands - Backyard Novicane - Burnin Rubber tab

Help us improve GuitareTab! Take a short survey!
----------------------------------------------------------------------------
			     burnin rubber - byn
----------------------------------------------------------------------------
Tabbed by:caden byn guitarist 
Email:

Tuning: standard

intro (guitar 1)
e|-------------------------------------------------------------------------|
B|-------------------------------------------------------------------------|
G|-------------------------------------------------------------------------|
D|-------------------------------------------------------------------------|
A|-----4-5-4-2----7--4------4-5-4-2----------------------------------------|
E|--2-2---------5--------2-2---------5/7-7---------------------------------|

verse (giuitar 1&2)
(guitar 2)
e|-------------------------------------------------------------------------|
B|-------------------------------------------------------------------------|
G|-------------------------------------------------------------------------|
D|--44----------77---------44---------7/9-9--------------------------------|
A|--44----------77---------44---------7/9-9--------------------------------|
E|--22----------55---------22---------5/7-7--------------------------------|
  pm...........................
(guitar 1)                  play togather     
e|-------------------------------------------------------------------------|
B|-------------------------------------------------------------------------|
G|-------------------------------------------------------------------------|
D|-------------------------------------7/9-9-------------------------------|
A|-------------------------------------7/9-9-------------------------------|
E|-------------------------------------5/7-7-------------------------------|


prechorus (guitar 1&2)
e|-------------------------------------------------------------------------|
B|-------------------------------------------------------------------------|
G|-------------------------------------------------------------------------|
D|--44----------77----------44---------7/9-9-------------------------------|
A|--44----------77----------44---------7/9-9-------------------------------|
E|--22----------55----------22---------5/7-7-------------------------------|
  pm............................
(guitar 1)                play togather
e|-------------------------------------------------------------------------|
B|-------------------------------------------------------------------------|
G|-------------------------------------------------------------------------|
D|--------77-----------99---------77----7/9-9------------------------------|
A|--------77-----------99---------77----7/9-9------------------------------|
E|--------55-----------77---------55----5/7-7------------------------------|

chorus
e|-------------------------------------------------------------------------|
B|-------------------------------------------------------------------------|
G|-------------------------------------------------------------------------|
D|--44444444-77777777-44444444--7/9-9--------------------------------------|
A|--44444444-77777777-44444444--7/9-9--------------------------------------|
E|--22222222-55555555-22222222--5/7-7--------------------------------------|

order:
intro x2
verse x2
prechorus x1
chorus x3
verse x2
prechorus x1 
chorus x3
prechorus x2 
chorus x1
outro (intro) x2


| /    slide up
| pm.. palm mute
============================================================================
Related for Backyard Novicane - Burnin Rubber tab