Song name
# A B C D E F G H I J K L M N O P Q R S T U V W X Y Z

Misc Unsigned Bands - Thomas Hanly And The Gazelles - We Are The Gazelles tab

This is the solo of Thomas Hanly and The Gazelle's hit single


e---------------------------------thomas hanly---------------------------|
b--------------------15/10/2006-------------------3----------------------|
g-----------3/2--------------------------------------4h6-----------------|
d---------------------------------------------------------2---3----------|
a----4/5/r--------------------------------------------------------4------|
e--4------------------------------------------------------------------5--|

e----------------------2---2----222----12-12-12--------------------------|
b--------------------2---2---22------------------23-3-54/3--5-6-6-5-4----|
g--------4-5-7----5------------------------------------------------------|
d------5--------------------------------------------------------------6--|
a----2------------------------------------------------------------------7|
e--1---------------------------------------------------------------------|

e-------------------------------11---------------------------------------|
b----------11-13-b13r-13-11-b14----b14(16)r-13p11-------14p13-11---------|
g-10-12-13----------------------------------------13p12------------------|
d------------------------------------------------------------------------|
a------------------------------------------------------------------------|
e------------------------------------------------------------------------|

there it is!! enjoy!

Tap to rate this tab
# A B C D E F G H I J K L M N O P Q R S T U V W X Y Z