Song name
# A B C D E F G H I J K L M N O P Q R S T U V W X Y Z

Misc Unsigned Bands - Small Town 60 - Choices tab

-------------------------------------------------------------------------------
			     CHOICES: Small Town 60
-------------------------------------------------------------------------------
Tabbed by: Streetness

Tuning:Standard
Guitar 1 Intro
e|------------------------------------------------------------------------------|
B|------------------------------------------------------------------------------|
G|------------------------------5-----------------------------------------------|
D|-2-----------2-------5--------5-(x16)--5---------2---------2------------------|
A|-2--(x-7)----2-(x 6)-5-(x 2)--3--------5---(x3)--2-(x 7)---2-(x6)-------------|
E|-0--------3--0-------3-----------------3---------0-------3-0------------------|
Guitar 1 intro continuted
e|-----------------------------------------------------------------------------|
B|-----------------------------------------------------------------------------|
G|-----------5------7----------------------------------------------------------|
D|--5--------5-(x8)-7-(x8)-----------------------------------------------------|
A|--5-(x 2)--3------5----------------------------------------------------------|
E|--3--------------------------------------------------------------------------|
Verse palm muted, but same notes as intro. Play two times.

Bridge Chords:
Asus, C

Chorus Identical to Intro
Guitar 2 (Lead) Throughout the intro, play octaves and you got it.

Solo
e|-----------------------------------------------------------15-14----------|
B|------------------------------------12-15/17~----12-15/17~-------17-15-12-|
G|--------------12----12----12-14b-14-----------14--------------------------|
D|-12h14~-12-14----14----14-------------------------------------------------|
A|--------------------------------------------------------------------------|
E|--------------------------------------------------------------------------|

e|--------------------------------------------------------------------------|
B|-12b--------------14-12-----12-\------------------------------------------|
G|-----14-12----12b-14-12-----12-\------------------------------------------|
D|-----------14-----------14b-----------------------------------------------|
A|--------------------------------------------------------------------------|
E|--------------------------------------------------------------------------|
Tap to rate this tab
# A B C D E F G H I J K L M N O P Q R S T U V W X Y Z