Song name
# A B C D E F G H I J K L M N O P Q R S T U V W X Y Z

Misc Unsigned Bands - Last Tree On The Left - Pulling My Hair tab

Gavin Davis
Last Tree On The Left
Pulling My Hair
Chorus And Delay
Intro Bass Kicks In After 2 Check The Bass Tab.
e||-----------------------------------||\
B||-----------------------------------|| \
G||-----------------------------------||  \
D||---14--14--14--14--10--10--10--10--||   \
A||-12--12--12--12--12--12--12--12----||    \
E||-----------------------------------||     \
                                              |6x
e||-----------------------------------||     /
B||-----------------------------------||    /
G||-----------------------------------||   /
D||---12--12--12--12--12--12--12--12--||  /
A||-12--12--12--12--10--10------------|| /
E||-------------------------10--10----||/ 
Chorus
e||-----------------------------------||
B||-----------------------------------||
G||-14~-12~---------------------------||
D||-14~-12~-12~-10~-------------------||4x 4th Time Without The Last Chord
A||-12~-10~-12~-10~-------------------||
E||---------10~-08~-------------------||

Verse play twice
e||------------------------------------------------------------------------|
B||------------------------------------------------------------------------|
G||-14-14-x-14-14-14-x-12-12-x-12-12-12-x----------------------------------|
D||-14-14-x-14-14-14-x-12-12-x-12-12-12-x-12-12-x-12-12-12x10-10-x-10-10-10|
A||-12-12-x-12-12-12-x-10-10-x-10-10-10-x-12-12-x-12-12-12x10-10-x-10-10-10|
E||-------------------------------------x-10-10-x-10-10-10x08-08-x-08-08-08|

Outro
e||-----------------------------------||\
B||-----------------------------------|| \
G||-----------------------------------||  \
D||---14--14--14--14--10--10--10--10--||   \
A||-12--12--12--12--12--12--12--12----||    \
E||-----------------------------------||     \
                                              |6x
e||-----------------------------------||     /
B||-----------------------------------||    /
G||-----------------------------------||   /
D||---12--12--12--12--12--12--12--12--||  /
A||-12--12--12--12--10--10------------|| /
E||-------------------------10--10----||/ 
Thanks
Tap to rate this tab
# A B C D E F G H I J K L M N O P Q R S T U V W X Y Z