Song name
# A B C D E F G H I J K L M N O P Q R S T U V W X Y Z

Misc Unsigned Bands - Blinded Mind - The Calling Of Horror tab

This is the greatest tab that I've done yet

Tuning:Drop D
Intro/chorus
e|----------------------|
B|----------------------|
G|----------------------|X4
D|-0--------0-----------|
A|-0-0-5-6--0-0-/6--5-3-|
D|-0-0------0-0---------|
PM    -       -
Verse:Gtr.1                    
e|-------------------------------------------------------|
B|-------------------------------------------------------|
G|-------------------------------------------------------|
D|-3--2~-------------0--000-0-0-0--3--2--0-000-000-0-0-0-|
A|-3--2~-------------0--000-0-0-0--3--2--0-000-000-0-0-0-|
D|-3--2~-------------0--000-0-0-0--3--2--0-000-000-0-0-0-|
PM                      --- - - -          --- --- - - -               
Gtr.2
e|-------------------------------------------------------|
B|-------------------------------------------------------|
G|-------------------------------------------------------|
D|-3--2--------------0--000-0-0-0--3--2--0-000-000-0-0-0-|
A|-3--2--------------0--000-0-0-0--3--2--0-000-000-0-0-0-|
D|-3--2--15/-/-/-/-/-0--000-0-0-0--3--2--0-000-000-0-0-0-|
PM                      --- - - -          --- --- - - - 
Do that 2 times and then do this 3 times  
e|-------------------------------------------------------|
B|-------------------------------------------------------|
G|---------------------11*squeal*------------------------|
D|-------------------------------------------------------|
A|-00-5-00-7-00-8-00-10-----------00-5-00-7-00-8---4---5-|
D|-00---00---00---00--------------00---00---00---0-------| 




SOLO: Very fast                         |sweep picking 2 times
e|-------------------19--20--21br21br21b|-15-11----------------------11-15|
B|----------------18---18--18-----------|-------12-----------------15----|
G|----------18-20-----------------------|---------13-------------14------|
D|----20-22-----------------------------|-----------12---------15--------|
A|-19-----------------------------------|-------------13-15-16-----------|
D|--------------------------------------|--------------------------------

more sweep picking
e|-12-16---------------------16-12|
B|-------17----------------15-----|
G|---------18------------16-------|
D|-----------17--------15---------|
A|-------------18-16-15-----------|
D|--------------------------------| 




2nd solo:alternative sweep picking this time humbucker for solos 
e|-------------------------------------------------------------------------|
B|----------------17-16-15----------------------------------------14-13-15b|
G|--------17-16-15--------17-16-15--------14-13-12--------14-13-15---------|
D|17-16-15------------------------17-16-15--------14-13-12-----------------|
A|-------------------------------------------------------------------------|
D|-------------------------------------------------------------------------

ending
e|-------------------------------|
B|-------------------------------|
G|-------------------------------|
D|-0----------------------0~-----|
A|-0-0-/5-6----5---3--2b--0~-----|
D|-0-0--------------------0~-----|                                         
Tap to rate this tab
# A B C D E F G H I J K L M N O P Q R S T U V W X Y Z